1975
As recorded by Everclear on "White Trash Hell" EP
Tabbed by Joe (FleetadmJw1@cs.com)

Intro: (w/ slight distortion)
e|---------------------------------------------------------------------| 
B|---------------------------------------------------------------------| 
G|-------7---7---7---7---7---7---7---7---6---6---6---6---6---6---6---6-| 
D|-------9---9---9---9---9---9---9---9---7---7---7---7---7---7---7---7-| 
A|---------------------------------------------------------------------| 
E|---------------------------------------------------------------------| 
  pm...................................................................

e|--------------------------------------------------0---0---0---0-------|
B|----------------------------------3---3---3---3---3---3---3---3-------|
G|------------------1---1---1---1---1---1---1---1---1---1---1---1-------|
D|--2---2---2---2---2---2---2---2---2---2---2---2---2---2---2---2-------|
A|--2---2---2---2---2---2---2---2---2---2---2---2---2---2---2---2-------|
E|------0---0---0---0---0---0---0---0---0---0---0---0---0---0---0-------|
  pm................................................................

Verse Riff 1:
e|-----------------------------------------------------------------------------|
B|-----------------------------------------------------------------------------|
G|--4--4--4--4--4--4--4--4----2--2--2--2--2--2--2--2---------------------------|
D|--4--4--4--4--4--4--4--4----2--2--2--2--2--2--2--2----2--2--2--2--2--2--2--2-|
A|--2--2--2--2--2--2--2--2----0--0--0--0--0--0--0--0----2--2--2--2--2--2--2--2-|
E|------------------------------------------------------0--0--0--0--0--0--0--0-|
 pm...........................................................................

Chorus Riff: Same As Verse Riff Only Not Palm Muted & Heavier Distortion

Verse Riff 2: Same As Verse Riff 1 Only Heavier Distortion. Remember to Palm 
Mute

Sorry, I Can't Figure Out The Outro

Suggestion from Chris H (afterfade@hotmail.com)

 I bought that relreleased White Trash Hell EP and I enjoyed that 1975 song so I tried to figure out the last 
 part. Here's what i think it is, though i dont have the CD with me, so u might
have to edit it a bit (notes are right i think, just how many times u play them might be off)...
 
e|-0-0-0-0-0--0--0--0--0--0--0--|
B|-9-9-9-7-11-11-11-11-12-12-12-|
G|-9-9-9-9----------------------| 
D|------------------------------|
A|------------------------------|
E|------------------------------|

JASON'S EVERCLEAR TABS - http://members.tripod.com/~panec/