"All Fucked Up" (Bass)
As recorded by Everclear on "Songs From An American Movie Volume 2,
 A Good Time For A Bad Attitude"
Tabbed by Ashton Bailey (ashton_bailey@hotmail.com)
 & Jason P (jasonsevercleartabs@hotmail.com)

Key:
pm = palm mute
\ = slide up towards the neck
/ = slide down towards the body
fb = feedback
h = hammer
b = bend string
r = ring (let string ring)

Note, first time is guitar only, then Bass, and drums come in.

Intro
G|---------------------------------------------------------------|
D|---------------------------------------------------------------|
A|--6-6-6/8--8--8-/10-10-10-10----6-6-6/8--8--8-/10-10-10/11\10--|
E|---------------------------------------------------------------|
     Eb      Fb       Gb            Eb     Fb      Gb     G  Gb

Intro Continued
G|----------------------------------------------------|
D|----------------------------------------------------| Repeat 3 times
A|-6-6-6/8--8--8-/10-10-10-10----4-4-4/6-6-6\3-3-3-3--|
E|----------------------------------------------------|
    Eb      Fb        Gb          Db     Eb     C

Main Verse
G|-------------------------------------------------------------|
D|-------------------------------------------------------------| Repeat as 
needed
A|--6-6-----2-2-4-4-6-6-----2-2-4-4-6-6-----2-2-4-4-1-1-1-1----|
E|------2-2-------------2-2-------------2-2-----------------4--|
    Eb  F#   B  Db  Eb  F#   B  Db  Eb  F#  B    Db   Bb    Ab

Guitar Solo - Same as the main verse

Break
G|--------------------------------------------------|
D|--------------------------------------------------| Repeat a few times
A|--6--6--------2--2--4--4--6--6--------2--2--4--4--| The go to Break 2
E|--------2--2--------------------2--2--------------|
     Eb    F#    B     Db    Eb    F#    B     Db

Break 2
G|--------------------------------------------------|
D|--------------------------------------------------|
A|--6--6--------2--2--4--4--1--1--1--1--------------|
E|--------2--2--------------------------4--4--4--4--|
     Eb    F#     B    DB       Bb          Ab

Outro- Same as the Main Verse

JASON'S EVERCLEAR TABS - http://members.tripod.com/~panec/