"Amphetamine" (Bass)
As recorded by Everclear on "So much for the afterglow"
Transcribed by Ashton Bailey (ashton_bailey@hotmail.com)

   Intro
G|-----------------------------------------------------------|
D|-----------------------------------------------------------|
A|----------------3-3-3-3-3-3-3-0-0-0-0-0-0-0-3-3-3-3-3-3-3--|
E|--3-3-3-3-3-3-3--------------------------------------------|
         G               C               A           C

   Main Verse
G|-----------------------------------------------------------|
D|-----------------------------------------------------------|
A|----------------3-3-3-3-3-3-3-0-0-0-0-0-0-0-3-3-3-3-3-3-3--|
E|--3-3-3-3-3-3-3--------------------------------------------|
          G             C             A             C

   Bridge
G|-------------------------------------------------------|
D|-------------------------------------------------------|
A|-------------------------------------------------------|
E|--3-3-3-3-3-----3-3-3-3-3-----3-3-3-3-3-----3-3-3-3-3--|
        G             G             G             G

   Chorus ("Yeah, you just take you pill's....")
G|-----------------------------------------------------------|
D|-----------------------------------------------------------|
A|--------------5-5-5-5--5--6-6-6-6--6--3-3-3-3--3-----------|
E|--3-3-3-3--3--------------------------------------4-4-4-4--|
        G            D          Eb          C         Ab

   Outro
G|-----------------------------|
D|-----------------------------|
A|--------3~-----0~-----3~-----|
E|--3~-------------------------|
    G     C      A      C

   Outro 2
G|-------------------------|
D|-------------------------|
A|-------3~---0~----3~-----|
E|--3~-----------------4~--|

   Outro 3
G|----------------|
D|----------------|
A|----------------|
E|--3~-----4--3~--|
    G     Ab G

JASON'S EVERCLEAR TABS - http://members.tripod.com/~panec/