Anita Sonic Love
As recorded by Colorfinger on "Deep in the Heart of the Beast in the Sun."
Tabbed by Jason P (jasonsevercleartabs@hotmail.com)

Key:
pm = palm mute
\ = slide up towards the neck
/ = slide down towards the body
h = hammer
b = bend string
r = ring (let string ring)
v = strum down
^ = strum up
~ = Hold Note
X = Muted String

    G
e|--3---3---3-3-3--------|
B|--3---3---3-3-3--------|
G|--0---0---0-0-0--------|
D|--0---0---0-0-0--------|
A|--2---2---2-2-2---0-2--|
E|--3---3---3-3-3-3------|

    C          A     G         F
e|--0---0------0-0---3---3-----1-1--| x2 
B|--1---1------2-2---3---3-----1-1--|
G|--0---0------2-2---0---0-----2-2--|
D|--2---2------2-2---0---0-----3-3--|
A|--3---3------0-0---2---2-----3-3--|
E|-------------------3---3-----x-x--|
I hear the sonic sound of brake as you whisper in my ear.
I hold your head between my sweaty hands and shout loud for all to hear

   E               F
e|------------------------------------|
B|---------0---------------1----------|
G|---1-------1---1---2-------2---2----|
D|-----2-------2-------3-------3------|
A|-------2---------------3------------|
E|-0---------------1------------------|

   E               F        G 
e|------------------------------------|
B|---------0--------------------------|
G|---1-------1---1---2----------------|
D|-----2-------2-------3--------------|
A|-------2---------------3--------0-2-|
E|-0---------------1-------1/3--3-----|
   Anita say the word.  

    C          A     G          F
e|--0---0------0-0---3---3------1-1--| x3 
B|--1---1------2-2---3---3------1-1--|
G|--0---0------2-2---0---0------2-2--|
D|--2---2------2-2---0---0------3-3--|
A|--3---3------0-0---2---2------3-3--|
E|-------------------3---3------x-x--|
 |                                   |
 | v ^ v ^ v         v ^ v ^ v       | 
e|-0-0-0-0-0~--------0-0-0-0-0-------| (double picked)
B|-5-5-5-5-5~--------5-5-5-5-5-------|
G|-----------------------------------|
D|-----------------------------------|
A|-----------------------------------|
E|-----------------------------------|
 I smell gasoline and I feel the heat 
 as we make love standing up in the alley behind your street. 
 Glow and crumble girl, I want you but I don't want your world. 

   E               F
e|------------------------------------| x2
B|---------0---------------1----------|
G|---1-------1---1---2-------2---2----|
D|-----2-------2-------3-------3------|
A|-------2---------------3------------|
E|-0---------------1------------------|
  Anita say the word,  
  Anita say the word, 

   E               F       G
e|------------------------------------|
B|------------------------------------|
G|-1-1-1-1-1-1-1-1-2-2-2-2/4-4-4-4-4--|
D|-2-2-2-2-2-2-2-2-3-3-3-3/5-5-5-5-5--|
A|-2-2-2-2-2-2-2-2-3-3-3-3/5-5-5-5-5--|
E|-0-0-0-0-0-0-0-0-1-1-1-1/3-3-3-3-3--|
pm........... . . . .  . (loosen mute)
   Anita say the word. 

    A          F     A          F
e|--0---0------1-1---0---0------1-1--|
B|--2---2------1-1---2---2------1-1--|
G|--2---2------2-2---2---2------2-2--|
D|--2---2------3-3---2---2------3-3--|
A|--0---0------3-3---0---0------3-3--|
E|-------------x-x--------------x-x--|
 |                                   |
 | v ^ v ^ v         v ^ v ^ v       | 
e|-0-0-0-0-0~--------0-0-0-0-0-------| (double picked)
B|-5-5-5-5-5~--------5-5-5-5-5-------|
G|-----------------------------------|
D|-----------------------------------|
A|-----------------------------------|
E|-----------------------------------|
  I will walk with you, almost anywhere.

   G
e|-------3--3--------3--3---------3--3--3-x------|
B|----3--3--3--------3--3---------3--3--3-x------|
G|-0--0--0--0--------0--0---------0--0--0-x------|
D|-0--0--------0--0--0------0--0--0-----0-x------|
A|-2--2--------2--2---------2--2--------2-x------|
E|-3--3--------3--3---------3--3--------3-x------|
   Back to Al's bar, with a hand in hand. 
   All them local boys will know that I'm your new man. 

   C     D     F
e|-0--0--2--2--1--1--1--1--|
B|-1--1--3--3--1--1--1--1--|
G|-0--0--2--2--2--2--2--2--|
D|-2--2--0--0--3--3--3--3--|
A|-3--3--------3--3--3--3--|
E|-------------x--x--x--x--|
                 Come On!

    C          A     G          F
e|--0---0------0-0---3---3------1-1--| x3 
B|--1---1------2-2---3---3------1-1--|
G|--0---0------2-2---0---0------2-2--|
D|--2---2------2-2---0---0------3-3--|
A|--3---3------0-0---2---2------3-3--|
E|-------------------3---3------x-x--|
 |                                   |
 | v ^ v ^ v         v ^ v ^ v       | 
e|-0-0-0-0-0~--------0-0-0-0-0-------| (double picked)
B|-5-5-5-5-5~--------5-5-5-5-5-------|
G|-----------------------------------|
D|-----------------------------------|
A|-----------------------------------|
E|-----------------------------------|
  Hey, see Anita. Yeah, she's my scary girl. 
  All black blue eyes, and blue blackened hair. 
  I can taste the heaven waiting there. 

    C          A     G          F
e|--0---0------0-0---3---3------1-1--| x3 
B|--1---1------2-2---3---3------1-1--|
G|--0---0------2-2---0---0------2-2--|
D|--2---2------2-2---0---0------3-3--|
A|--3---3------0-0---2---2------3-3--|
E|-------------------3---3------x-x--|
 |                                   |
 |                   v ^ v ^ v       | 
e|-------------------0-0-0-0-0-------| (double picked)
B|-------------------5-5-5-5-5-------|
G|-----------------------------------|
D|-----------------------------------|
A|-----------------------------------|
E|-----------------------------------|
   Shake and treble, broken grace. I admit it, I'm in love 

   E               F
e|---------0---------------1---0------| x2
B|-----------0---0---------1---0------|
G|-----1-------1-------2--------------|
D|---2---2-----------3---3------------|
A|------------------------------------|
E|-0---------------1------------------|
   but out of place. 

   E               F
e|------------------------------------| x2
B|---------0---------------1----------|
G|---1-------1---1---2-------2---2----|
D|-----2-------2-------3-------3------|
A|-------2---------------3------------|
E|-0---------------1------------------|
   Anita say the word, 

   E               F       G
e|------------------------------------|
B|------------------------------------|
G|-1-1-1-1-1-1-1-1-2-2-2-2/4-4-4-4-4--|
D|-2-2-2-2-2-2-2-2-3-3-3-3/5-5-5-5-5--|
A|-2-2-2-2-2-2-2-2-3-3-3-3/5-5-5-5-5--|
E|-0-0-0-0-0-0-0-0-1-1-1-1/3-3-3-3-3--|
pm........... . . . .  . (loosen mute)
   Anita say the word, the word, the word. 

    A          F     A          F
e|--0---0------1-1---0---0------1-1--|
B|--2---2------1-1---2---2------1-1--|
G|--2---2------2-2---2---2------2-2--|
D|--2---2------3-3---2---2------3-3--|
A|--0---0------3-3---0---0------3-3--|
E|-------------x-x--------------x-x--|
 |                                   |
 | v ^ v ^ v         v ^ v ^ v       | 
e|-0-0-0-0-0~--------0-0-0-0-0-------| (double picked)
B|-5-5-5-5-5~--------5-5-5-5-5-------|
G|-----------------------------------|
D|-----------------------------------|
A|-----------------------------------|
E|-----------------------------------|
  I will sleep with you in that misfit way, 

   G
e|-------3--3--------3--3---------3--3--3-x------|
B|----3--3--3--------3--3---------3--3--3-x------|
G|-0--0--0--0--------0--0---------0--0--0-x------|
D|-0--0--------0--0--0------0--0--0-----0-x------|
A|-2--2--------2--2---------2--2--------2-x------|
E|-3--3--------3--3---------3--3--------3-x------|
  with the T.V. noise so loud it soothes my fears, 
  and the flickering light that will bathe your face. 

   C        D        F        G
e|-0-0--0---2-2--2---1-1--1---3-3--3--| x2
B|-1-1--1---3-3--3---1-1--1---3-3--3--|
G|-0-0--0---2-2--2---2-2--2---0-0--0--|
D|-2-2--2------------3-3--3---0-0--0--|
A|-3-3--3------------3-3--3---2-2--2--|
E|-------------------x-x--x---3-3--3--|
 |                                    |
e|-5p3-3-3--5p3-3-3--5p3-3-3--7-7-5-3-|
B|------------------------------------|
G|------------------------------------|
D|------------------------------------|
A|------------------------------------|
E|------------------------------------|
              Oh...    Anita... Anita..

   C        D        F        G
e|-0-0--0---2-2--2---1-1--1---3-3--3--| x2
B|-1-1--1---3-3--3---1-1--1---3-3--3--|
G|-0-0--0---2-2--2---2-2--2---0-0--0--|
D|-2-2--2------------3-3--3---0-0--0--|
A|-3-3--3------------3-3--3---2-2--2--|
E|-------------------x-x--x---3-3--3--|
 |                                    |
e|-0--------0--------0-------0--------|
B|-1-3-3/5--1-3-3/5--1-3-3/5-6-5-3/5--|
G|------------------------------------|
D|------------------------------------|
A|------------------------------------|
E|------------------------------------|
           I need her... Anita

      C         D         F         
e|-(0)-------------------------------------|
B|-(1)----1---------3---------1~-------1~--|
G|------0---------2---------2--------2-----|
D|--------------0---------3--------3-------|
A|----3------------------------------------|
E|-----------------------------------------|

    C         D         F        G
e|---------------------------------------|
B|------1---------3---------1~-----------|
G|----0---------2---------2----------2b--|
D|------------0---------3--------0-------|
A|--3------------------------------------|
E|---------------------------------------|
I wake from the drugs and the fear. 
In the night outside the world reverberates. 

    C         D         F     
e|---------------------------------------|
B|------1---------3---------1~-------1~--|
G|----0---------2---------2--------2-----|
D|------------0---------3--------3-------|
A|--3------------------------------------|
E|---------------------------------------|
Blue shadows in our loft downtown L.A. 
Outside the world reverberates. 

    C         D         F        G
e|---------------------------------------| x2
B|------1---------3---------1~-------0~--|
G|----0---------2---------2--------2-----|
D|------------0---------3--------0-------|
A|--3------------------------------------|
E|---------------------------------------|
I need the strength I see in her, 
I need the love I feel inside. 
Talk about leaving behind the hell we're in. 
We laugh about making it out alive. 

    C         D         F     
e|---------------------------------------| 
B|------1---------3---------1~-------1~--|
G|----0---------2---------2--------2-----|
D|------------0---------3--------3-------|
A|--3------------------------------------|
E|---------------------------------------|
 |                                       |
e|---------------------------------------|
B|---------------------------------------|
G|--2-2-0---0-2-2-0---0h2-2-0--0---------|
D|----------0---------3------------------|
A|--3------------------------------0--2--|
E|-------------------------------3-------|
   pm...................................

    C         D         F     
e|---------------------------------------| 
B|------1---------3---------1~-------1~--|
G|----0---------2---------2--------2-----|
D|------------0---------3--------3-------|
A|--3------------------------------------|
E|---------------------------------------|
 |                                       |
e|---------------------------------------|
B|---------------------------------------|
G|--2-2-0---0-2-2-0---0h2-2-0--0-2-2-0---|
D|----------0---------3----------3-------|
A|--3------------------------------------|
E|---------------------------------------|
   pm...................................
Hey, see Anita. Yeah, she's my pretty girl. 

    C         D         F        G
e|---------------------------------------|
B|------1---------3---------1~-------0~--|
G|----0---------2---------2--------2-----|
D|------------0---------3--------0-------|
A|--3------------------------------------|
E|---------------------------------------|
 |                                       |
e|---------------------------------------|
B|---------------------------------------|
G|--2-2-0---0-2-2-0---0h2-2-0--0---------|
D|----------0---------3------------------|
A|--3------------------------------0--2--|
E|-------------------------------3-------|
   pm...................................
                  Yeah she's my pretty girl

    C            D           F     
e|---------------2--2--2--2--1--1--1--1--1--1--1--1-| 
B|--------1--1---3--3--3--3--1--1--1--1--1--1--1--1-|
G|-----0--0--0---2--2--2--2--2--2--2--2--2--2--2--2-|
D|--2--2--2--2---0-----------3--3--3--3--3--3--3--3-|
A|--3--3--3--3---------------3--3--3--3--3--3--3--3-|
E|---------------------------x--x--x--x--x--x--x--x-|
  pm......... .... . . .. .   . (loosen)
Blind eye to the world outside, no more so than the rest of the world

   C           D    F            G
e|-0-0-0-------2-2--1-1-1--------3-3--| x2
B|-1-1-1-------3-3--1-1-1--------3-3--|
G|-0-0-0-------2-2--2-2-2--------0-0--|
D|-2-2-2------------3-3-3--------0-0--|
A|-3-3-3------------3-3-3--------2-2--|
E|------------------x-x-x--------3-3--|
 |                                    |
 | v ^ v ^ v        v ^ v ^ v         | 
e|-0-0-0-0-0~-------0-0-0-0-0---------| (double picked)
B|-5-5-5-5-5~-------5-5-5-5-5---------|
G|------------------------------------|
D|------------------------------------|
A|------------------------------------|
E|------------------------------------|
no more so than the rest of the world,
no more so than any other girl. 

   C           D    F            G
e|-0-0-0-------2-2--1-1-1--------3-3--| 
B|-1-1-1-------3-3--1-1-1--------3-3--|
G|-0-0-0-------2-2--2-2-2--------0-0--|
D|-2-2-2------------3-3-3--------0-0--|
A|-3-3-3------------3-3-3--------2-2--|
E|------------------x-x-x--------3-3--|
 |                                    |
 | v ^ v ^ v        v ^ v ^ v         | 
e|-0-0-0-0-0~-------0-0-0-0-0---------| (double picked)
B|-5-5-5-5-5~-------5-5-5-5-5---------|
G|------------------------------------|
D|------------------------------------|
A|------------------------------------|
E|------------------------------------|
 |          v ^ v ^ v       v ^ v ^ v | 
e|----------0-0-0-0-0~------0-0-0-0-0-| (double picked)
B|----------5-5-5-5-5~------5-5-5-5-5-|
G|------------------------------------|
D|------------------------------------|
A|------------------------------------|
E|------------------------------------|
It makes no sense to me. No more so than the rest of the world. 

   C           D    F            
e|-0-0-0-------2-2--1-1-1-1-1-1-1-1---| 
B|-1-1-1-------3-3--1-1-1-1-1-1-1-1---|
G|-0-0-0-------2-2--2-2-2-2-2-2-2-2---|
D|-2-2-2------------3-3-3-3-3-3-3-3---|
A|-3-3-3------------3-3-3-3-3-3-3-3---|
E|------------------x-x-x-x-x-x-x-x---|
 |                                    |
 | v ^ v ^ v        v ^ v ^ v ^ v ^   | 
e|-0-0-0-0-0~-------0-0-0-0-0-0-0-0---| (double picked)
B|-5-5-5-5-5~-------5-5-5-5-5-5-5-5---|
G|------------------------------------|
D|------------------------------------|
A|------------------------------------|
E|------------------------------------|
 |          v ^ v ^ v ^ v ^ v ^ v ^   | 
e|----------0-0-0-0-0-0-0-0-0-0-0-0---| (double picked)
B|----------5-5-5-5-5-5-5-5-5-5-5-5---|
G|------------------------------------|
D|------------------------------------|
A|------------------------------------|
E|------------------------------------|
  It makes no sense to me. 

   E               F
e|---------0---------------1----------|
B|-----------0---0-----------1---1----|
G|-----1-------1-------2-------2------|
D|---2---2-----------3---3------------|
A|------------------------------------|
E|-0---------------1------------------|
Yeah, Anita, say the word. 

   E               F
e|---------0---------------1----------|
B|-------0---0---0-----------1---1----|
G|-----1-------1-------2-------2------|
D|---2---------------3---3------------|
A|------------------------------------|
E|-0---------------1------------------|
Yeah, come on Anita, say the word. 

e|--------------------|
B|--------------------|
G|--------0-2-0---0-0-|
D|----0h2-------2---2-|
A|--3---------------3-|
E|--------------------|

JASON'S EVERCLEAR TABS - http://members.tripod.com/~panec/