Bad Connection (bass)
As recorded by Everclear on the "SMFTA" AUS single
Tabbed by Joel Zimmerman (cheesy_poofs@usa.net) and DiRt (blind735@up2me.com)

VERSION 1 - Tabbed by Joel Zimmerman

if you find any mistakes, E-mail ME 
  
INTRO: played once when the guys are talking 
G|---------- 
D|-----2--0 
A|-3-3--3-- 
E|--------- 

1) Main part of the song: 
G|------0-3-0-- 
D|----2-------- 
A|-3-3-3-3----- 
E|------------- 

2) 
G|---------------------------------- 
D|-3-3-3-3-3-3-3-3-3-3-3-3-3-3-3-3-- 
A|---------------------------------- 
E|---------------------------------- 

3) 
G|-------------------------------------------------------------- 
D|-5-5-5-5-5-5-5-5------------------------------3-3-3-3-3-3-3-3- 
A|-------------------------------3-3-3-3-3-3-3-3---------------- 
E|----------------3-3-3-3-3-3-3-3------------------------------- 

G|---------------------------------------------------------------- 
D|----------------2-2-2-2-2-2-2-2-3-3-3-3-3-3-3-3-5-5-5-5-5-5-5-5- 
A|-3-3-3-3-3-3-3-3------------------------------------------------ 
E|---------------------------------------------------------------- 

4) 
G|--------------------------------------------------------------- 
D|--------------------------------------------------------------- 
A|-3-3-3-3-3-3-3-3-3-3-3-3-3-3-3-3-1-1-1-1-1-1-1-1-1-1-1-1-1-1-1- 
E|--------------------------------------------------------------- 

Here's the confusing part, the order: 
1x12, 2x1, 1x6, 2x1, 1x2, 3x1, 1x8, 2x1, 1x6, 2x1, 1x2, 3x1, 1x8, 4x4, 
1x4, 3x1, 1x4, 3x1, 1x16, play the note in the parentheses after 
playing it for the 16th time 
G||-0h10----11-------------|-----9---8----------|| 
D||------11----10-12-12-12-|-0h7---7---7-0-0-0-.|| 
A||------------------------|-------------------.|| 
E||------------------------|--------------------|| 

G||-12-12---11-|-12-12---11-|-12-12---11-|| 
D||-12-12-0-12-|-12-12-0-12-|-12-12-0-12-|| 
A||------------|------------|------------|| 
E||------------|------------|------------|| 

end: 
G||-----6---7---6h7-|-----6---7---6h7-|| 
D||-0h7---7---7-----|-0h7---7---7-----|| 
A||-----------------|-----------------|| 
E||-----------------|-----------------||

VERSION 2 - Tabbed by Dirt 

i got this

G|------------------------|
D|------------------------|
A|-33-7-3-5---------------|
E|------------------------|

G|---------------OR-----0-20------|
D|--------5---75-OR---2-----------|
A|-33-7-3---3----OR-33-3-3--------|
E|---------------OR---------------|

second way sounds good on bass and alot easier

JASON'S EVERCLEAR TABS - http://members.tripod.com/~panec/