"Blackjack" Guitar & Bass Tab
As Recorded By Everclear on "Slow Motion Daydream"
Tabbed By Ashton Bailey (dingleberry666@hotmail.com), JR (soggypeaces@yahoo.com) and Zach Larsen (Arod5903@yahoo.com)

VERSION 1: Tabbed by Ashton Bailey

Key:
pm = palm mute
\ = slide up towards the neck
/ = slide down towards the body
fb = feedback
h = hammer
b = bend string
r = ring (let string ring)
H = Harmonics
~ = hold note
X = pick muted string

Note I'm guessing on some of the lyrics

Intro

   Guitars 1 & 2
e|---------------------------------------------------------------------------|
B|---------------------------------------------------------------------------|
G|---------------------------------------------------------------------------|
D|--7-7-7-7\5-5/7-7-X-7-7-7-7\5-5/7-7-X-7-7-7-7\5-5/7-7-X-7-7-7-7\5-5/7-7-X--|
A|--7-7-7-7\5-5/7-7-X-7-7-7-7\5-5/7-7-X-7-7-7-7\5-5/7-7-X-7-7-7-7\5-5/7-7-X--|
E|--5-5-5-5\3-3/5-5-X-5-5-5-5\3-3/5-5-X-5-5-5-5\3-3/5-5-X-5-5-5-5\3-3/5-5-X--|
       A     G   A       A     G   A       A     G   A       A     G   A

   Bass
G|---------------------------------------------------------------------------|
D|---------------------------------------------------------------------------|
A|---------------------------------------------------------------------------|
E|--5-5-5-5\3-3/5-5-X-5-5-5-5\3-3/5-5-X-5-5-5-5\3-3/5-5-X-5-5-5-5\3-3/5-5-X--|
       A     G   A       A     G   A       A     G   A       A     G   A

   Guitar 1 (Art) Lead fill 1
e|------|
B|------|
G|--4b--| Art throws this little lead fill in after the intro
D|------|
A|------|
E|------|

Main Riff Verse 1

   Guitars 1 & 2
e|---------------------------------------------------------------------------|
B|---------------------------------------------------------------------------|
G|---------------------------------------------------------------------------|
D|--7-7-7-7\5-5/7-7-X-7-7-7-7\5-5/7-7-X-7-7-7-7\5-5/7-7-X-7-7-7-7\5-5/7-7-X--|
A|--7-7-7-7\5-5/7-7-X-7-7-7-7\5-5/7-7-X-7-7-7-7\5-5/7-7-X-7-7-7-7\5-5/7-7-X--|
E|--5-5-5-5\3-3/5-5-X-5-5-5-5\3-3/5-5-X-5-5-5-5\3-3/5-5-X-5-5-5-5\3-3/5-5-X--|
       A     G   A       A     G   A       A     G   A       A     G   A

   Bass
G|---------------------------------------------------------------------------|
D|---------------------------------------------------------------------------|
A|---------------------------------------------------------------------------|
E|--5-5-5-5\3-3/5-5-X-5-5-5-5\3-3/5-5-X-5-5-5-5\3-3/5-5-X-5-5-5-5\3-3/5-5-X--|
       A     G   A       A     G   A       A     G   A       A     G   A
   Scary John gets his strong arm on, He can make me and break me, Tap me 
with his blackjack

   Guitars 1 & 2
e|---------------------------------------------------------------------------|
B|---------------------------------------------------------------------------|
G|---------------------------------------------------------------------------|
D|--7-7-7-7\5-5/7-7-X-7-7-7-7\5-5/7-7-X-7-7-7-7\5-5/7-7-X-7-7-7-7\5-5/7-7-X--|
A|--7-7-7-7\5-5/7-7-X-7-7-7-7\5-5/7-7-X-7-7-7-7\5-5/7-7-X-7-7-7-7\5-5/7-7-X--|
E|--5-5-5-5\3-3/5-5-X-5-5-5-5\3-3/5-5-X-5-5-5-5\3-3/5-5-X-5-5-5-5\3-3/5-5-X--|
       A     G   A       A     G   A       A     G   A       A     G   A

   Bass
G|---------------------------------------------------------------------------|
D|---------------------------------------------------------------------------|
A|---------------------------------------------------------------------------|
E|--5-5-5-5\3-3/5-5-X-5-5-5-5\3-3/5-5-X-5-5-5-5\3-3/5-5-X-5-5-5-5\3-3/5-5-X--|
       A     G   A       A     G   A       A     G   A       A     G   A
   Scary John gets his heavy hand on, Lies within his eyes, Strong and happy 
with his blackjack

Pre-Chorus

   Guitars 1 & 2
e|--------------------------------------------|
B|--------------------------------------------|
G|--------X-10-10-10-X----------X-12-12-12-X--|
D|--7-7-7-X-10-10-10-X-10-10-10-X-12-12-12-X--|
A|--7-7-7-X-8--8--8--X-10-10-10-X-10-10-10-X--|
E|--5-5-5-X----------X-8--8--8--X----------X--|
      A        F          C          G

   Bass
G|--------------------------------------------|
D|--------------------------------------------|
A|----------8--8--8--X------------10-10-10-X--|
E|--5-5-5-X------------8--8--8--X-------------|
      A        F          C          G
       Don't tell me that you didn't see this coming down


   Guitars 1 & 2
e|---------------------------------------|
B|---------------------------------------|
G|---------------------------------------|
D|--7-7-7-7\5-5/7-7-X-7-7-7-7\5-5/7-7-X--|
A|--7-7-7-7\5-5/7-7-X-7-7-7-7\5-5/7-7-X--|
E|--5-5-5-5\3-3/5-5-X-5-5-5-5\3-3/5-5-X--|
       A     G   A       A     G   A

   Bass
G|---------------------------------------|
D|---------------------------------------|
A|---------------------------------------|
E|--5-5-5-5\3-3/5-5-X-5-5-5-5\3-3/5-5-X--|
       A     G   A       A     G   A

   Guitar 1 (Art) Lead fill 1
e|------|
B|------|
G|--4b--| The art throws this little lead fill in after the end of the above riff
D|------|
A|------|
E|------|

   Guitars 1 & 2
e|--------------------------------------------|
B|--------------------------------------------|
G|--------X-10-10-10-X----------X-12-12-12-X--|
D|--7-7-7-X-10-10-10-X-10-10-10-X-12-12-12-X--|
A|--7-7-7-X-8--8--8--X-10-10-10-X-10-10-10-X--|
E|--5-5-5-X----------X-8--8--8--X----------X--|
      A        F          C          G

   Bass
G|--------------------------------------------|
D|--------------------------------------------|
A|----------8--8--8--X------------10-10-10-X--|
E|--5-5-5-X------------8--8--8--X-------------|
      A        F          C          G
      Don't say that this isn't what you wanted

   Guitars 1 & 2
e|---------------------------------------|
B|---------------------------------------|
G|---------------------------------------|
D|--7-7-7-7\5-5/7-7-X-7-7-7-7\5-5/7-7-X--|
A|--7-7-7-7\5-5/7-7-X-7-7-7-7\5-5/7-7-X--|
E|--5-5-5-5\3-3/5-5-X-5-5-5-5\3-3/5-5-X--|
       A     G   A       A     G   A

   Bass
G|---------------------------------------|
D|---------------------------------------|
A|---------------------------------------|
E|--5-5-5-5\3-3/5-5-X-5-5-5-5\3-3/5-5-X--|
       A     G   A       A     G   A
                                    Ooooh

  Main Riff Verse 2

   Guitars 1 & 2
e|---------------------------------------------------------------------------|
B|---------------------------------------------------------------------------|
G|---------------------------------------------------------------------------|
D|--7-7-7-7\5-5/7-7-X-7-7-7-7\5-5/7-7-X-7-7-7-7\5-5/7-7-X-7-7-7-7\5-5/7-7-X--|
A|--7-7-7-7\5-5/7-7-X-7-7-7-7\5-5/7-7-X-7-7-7-7\5-5/7-7-X-7-7-7-7\5-5/7-7-X--|
E|--5-5-5-5\3-3/5-5-X-5-5-5-5\3-3/5-5-X-5-5-5-5\3-3/5-5-X-5-5-5-5\3-3/5-5-X--|
       A     G   A       A     G   A       A     G   A       A     G   A

   Bass
G|---------------------------------------------------------------------------|
D|---------------------------------------------------------------------------|
A|---------------------------------------------------------------------------|
E|--5-5-5-5\3-3/5-5-X-5-5-5-5\3-3/5-5-X-5-5-5-5\3-3/5-5-X-5-5-5-5\3-3/5-5-X--|
       A     G   A       A     G   A       A     G   A       A     G   A
   Scary John gets his strong arm on, He can make me and break me, Happy 
with his blackjack

   Guitars 1 & 2
e|---------------------------------------------------------------------------|
B|---------------------------------------------------------------------------|
G|---------------------------------------------------------------------------|
D|--7-7-7-7\5-5/7-7-X-7-7-7-7\5-5/7-7-X-7-7-7-7\5-5/7-7-X-7-7-7-7\5-5/7-7-X--|
A|--7-7-7-7\5-5/7-7-X-7-7-7-7\5-5/7-7-X-7-7-7-7\5-5/7-7-X-7-7-7-7\5-5/7-7-X--|
E|--5-5-5-5\3-3/5-5-X-5-5-5-5\3-3/5-5-X-5-5-5-5\3-3/5-5-X-5-5-5-5\3-3/5-5-X--|
       A     G   A       A     G   A       A     G   A       A     G   A

   Bass
G|---------------------------------------------------------------------------|
D|---------------------------------------------------------------------------|
A|---------------------------------------------------------------------------|
E|--5-5-5-5\3-3/5-5-X-5-5-5-5\3-3/5-5-X-5-5-5-5\3-3/5-5-X-5-5-5-5\3-3/5-5-X--|
       A     G   A       A     G   A       A     G   A       A     G   A
    Scary John always knows whats going on, He is everywhere, Happy with his 
blackjack

Pre-Chorus

   Guitars 1 & 2
e|--------------------------------------------|
B|--------------------------------------------|
G|--------X-10-10-10-X----------X-12-12-12-X--|
D|--7-7-7-X-10-10-10-X-10-10-10-X-12-12-12-X--|
A|--7-7-7-X-8--8--8--X-10-10-10-X-10-10-10-X--|
E|--5-5-5-X----------X-8--8--8--X----------X--|
      A        F          C          G

   Bass
G|--------------------------------------------|
D|--------------------------------------------|
A|----------8--8--8--X------------10-10-10-X--|
E|--5-5-5-X------------8--8--8--X-------------|
      A        F          C          G
       Don't tell me that you didn't see this coming down

   Guitars 1 & 2
e|---------------------------------------|
B|---------------------------------------|
G|---------------------------------------|
D|--7-7-7-7\5-5/7-7-X-7-7-7-7\5-5/7-7-X--|
A|--7-7-7-7\5-5/7-7-X-7-7-7-7\5-5/7-7-X--|
E|--5-5-5-5\3-3/5-5-X-5-5-5-5\3-3/5-5-X--|
       A     G   A       A     G   A

   Bass
G|---------------------------------------|
D|---------------------------------------|
A|---------------------------------------|
E|--5-5-5-5\3-3/5-5-X-5-5-5-5\3-3/5-5-X--|
       A     G   A       A     G   A

   Guitars 1 & 2
e|--------------------------------------------|
B|--------------------------------------------|
G|--------X-10-10-10-X----------X-12-12-12-X--|
D|--7-7-7-X-10-10-10-X-10-10-10-X-12-12-12-X--|
A|--7-7-7-X-8--8--8--X-10-10-10-X-10-10-10-X--|
E|--5-5-5-X----------X-8--8--8--X----------X--|
      A        F          C          G

   Bass
G|--------------------------------------------|
D|--------------------------------------------|
A|----------8--8--8--X------------10-10-10-X--|
E|--5-5-5-X------------8--8--8--X-------------|
      A        F          C          G
      Don't say that this isn't what you wanted

Chorus

   Guitars 1 & 2
e|---------------------------------------------------------------|
B|---------------------------------------------------------------|
G|--------------------------10-10-10-10-10-10-10-10-10-10-10-10--|
D|--7-7-7-7-7-7-7-7-7-7-7-7-10-10-10-10-10-10-10-10-10-10-10-10--|
A|--7-7-7-7-7-7-7-7-7-7-7-7-8--8--8--8--8--8--8--8--8--8--8--8---|
E|--5-5-5-5-5-5-5-5-5-5-5-5--------------------------------------|
               A                             F

   Bass
G|---------------------------------------------------|
D|---------------------------------------------------|
A|--------------------------8-8-8-8-8-8-8-8-8-8-8-8--|
E|--5-5-5-5-5-5-5-5-5-5-5-5--------------------------|
               A                       F
        Yeah this is your American dream, Everything is simple in the

   Guitars 1 & 2
e|---------------------------------------------------------------------------|
B|---------------------------------------------------------------------------|
G|--------------------------------------12-12-12-12-12-12-12-12-12-12-12-12--|
D|--10-10-10-10-10-10-10-10-10-10-10-10-12-12-12-12-12-12-12-12-12-12-12-12--|
A|--10-10-10-10-10-10-10-10-10-10-10-10-10-10-10-10-10-10-10-10-10-10-10-10--|
E|--8--8--8--8--8--8--8--8--8--8--8--8---------------------------------------|
                     C                                   G

   Bass
G|---------------------------------------------------------------|
D|---------------------------------------------------------------|
A|--------------------------10-10-10-10-10-10-10-10-10-10-10-10--|
E|--8-8-8-8-8-8-8-8-8-8-8-8--------------------------------------|
               C                             G
    white and the black, Never have to see the gray anymore, Never have to 
be afraid, When you are happy with the blackjack

   Guitars 1 & 2
e|----------------------------------------------------------------------------|
B|----------------------------------------------------------------------------|
G|----------------------------------------------------------------------------|
D|--7-7-7-7\5-5/7-7-X-7-7-7-7\5-5/7-7-X-7-7-7-7\5-5/7-7-X-7-7-7-7\5-5/7-7~~~--|
A|--7-7-7-7\5-5/7-7-X-7-7-7-7\5-5/7-7-X-7-7-7-7\5-5/7-7-X-7-7-7-7\5-5/7-7~~~--|
E|--5-5-5-5\3-3/5-5-X-5-5-5-5\3-3/5-5-X-5-5-5-5\3-3/5-5-X-5-5-5-5\3-3/5-5~~~--|
       A     G   A       A     G   A       A     G   A       A     G   A

   Bass
G|----------------------------------------------------------------------------|
D|----------------------------------------------------------------------------|
A|----------------------------------------------------------------------------|
E|--5-5-5-5\3-3/5-5-X-5-5-5-5\3-3/5-5-X-5-5-5-5\3-3/5-5-X-5-5-5-5\3-3/5-5~~~--|
       A     G   A       A     G   A       A     G   A       A     G   A
                    Happy with the blackjack,     Happy with the blackjack

Interlude

   Guitar 1 (Lead)
e|------------------------------------------------------------------------------------|
B|------------------------------------------------------------------------------------|
G|----------------------------4b-(gradual release then a few mini bends and feedack)--|
D|------------------------------------------------------------------------------------|
A|------------------------------------------------------------------------------------|
E|------------------------------------------------------------------------------------|

   Guitar 2 (rhythm)
e|----------------------------------------------------------------------------|
B|----------------------------------------------------------------------------|
G|--still holding A chord from last bar---------------------------------------|
D|---------------------------------------7~-----------------------------------|
A|---------------------------------------7~- volume swell till feedback-------|
E|---------------------------------------5~-----------------------------------|


   Bass
G|-------------------------------------------------------------------------|
D|-------------------------------------------------------------------------|
A|-------------------------------------------------------------------------|
E|--5-5-5-5\3-3/5-5-X-5-5-5-5\3-3/5-5-X-5-5-5-5\3-3/5-5-X-5-5-5-5\3-3/5-5--|
       A     G   A       A     G   A       A     G   A       A     G   A

   Guitar 1 (Lead)
e|---------------------------------------------------------------------------------|
B|---------------------------------------------------------------------------------|
G|--------------------4b5r4~----------------------------4b5r4~(hold and feedback)--|
D|---------------------------------------------------------------------------------|
A|---------------------------------------------------------------------------------|
E|---------------------------------------------------------------------------------|


   Guitar 2 (rhythm)
e|----------------------------------------------------------------------------|
B|----------------------------------------------------------------------------|
G|----------------------------------------------------------------------------|
D|--7~------------------------------------------------------------------------|
A|--7~- volume swell till feedback--------------------------------------------|
E|--5~------------------------------------------------------------------------|


   Bass
G|-------------------------------------------------------------------------|
D|-------------------------------------------------------------------------|
A|-------------------------------------------------------------------------|
E|--5-5-5-5\3-3/5-5-X-5-5-5-5\3-3/5-5-X-5-5-5-5\3-3/5-5-X-5-5-5-5\3-3/5-5--|
       A     G   A       A     G   A       A     G   A       A     G   A

   Guitar 1 (Lead)
e|---------------------------------------------------------------------------------|
B|---------------------------------------------------------------------------------|
G|--------------------4b5r4~----------------------------4b5r4~(hold and feedback)--|
D|---------------------------------------------------------------------------------|
A|---------------------------------------------------------------------------------|
E|---------------------------------------------------------------------------------|

   Guitar 2 (rhythm)
e|----------------------------------------------------------------------------|
B|----------------------------------------------------------------------------|
G|----------------------------------------------------------------------------|
D|--7~------------------------------------------------------------------------|
A|--7~- volume swell till feedback--------------------------------------------|
E|--5~------------------------------------------------------------------------|

   Bass
G|-------------------------------------------------------------------------|
D|-------------------------------------------------------------------------|
A|-------------------------------------------------------------------------|
E|--5-5-5-5\3-3/5-5-X-5-5-5-5\3-3/5-5-X-5-5-5-5\3-3/5-5-X-5-5-5-5\3-3/5-5--|
       A     G   A       A     G   A       A     G   A       A     G   A
              I don't want to hear a words he has to say

Pre-Chorus

   Guitars 1 & 2
e|--------------------------------------------|
B|--------------------------------------------|
G|--------X-10-10-10-X----------X-12-12-12-X--|
D|--7-7-7-X-10-10-10-X-10-10-10-X-12-12-12-X--|
A|--7-7-7-X-8--8--8--X-10-10-10-X-10-10-10-X--|
E|--5-5-5-X----------X-8--8--8--X----------X--|
      A        F          C          G

   Bass
G|--------------------------------------------|
D|--------------------------------------------|
A|----------8--8--8--X------------10-10-10-X--|
E|--5-5-5-X------------8--8--8--X-------------|
      A        F          C          G
       Don't tell me that you didn't see this coming down

   Guitars 1 & 2
e|---------------------------------------|
B|---------------------------------------|
G|---------------------------------------|
D|--7-7-7-7\5-5/7-7-X-7-7-7-7\5-5/7-7-X--|
A|--7-7-7-7\5-5/7-7-X-7-7-7-7\5-5/7-7-X--|
E|--5-5-5-5\3-3/5-5-X-5-5-5-5\3-3/5-5-X--|
       A     G   A       A     G   A

   Bass
G|---------------------------------------|
D|---------------------------------------|
A|---------------------------------------|
E|--5-5-5-5\3-3/5-5-X-5-5-5-5\3-3/5-5-X--|
       A     G   A       A     G   A

   Guitars 1 & 2
e|--------------------------------------------|
B|--------------------------------------------|
G|--------X-10-10-10-X----------X-12-12-12-X--|
D|--7-7-7-X-10-10-10-X-10-10-10-X-12-12-12-X--|
A|--7-7-7-X-8--8--8--X-10-10-10-X-10-10-10-X--|
E|--5-5-5-X----------X-8--8--8--X----------X--|
      A        F          C          G

   Bass
G|--------------------------------------------|
D|--------------------------------------------|
A|----------8--8--8--X------------10-10-10-X--|
E|--5-5-5-X------------8--8--8--X-------------|
      A        F          C          G
      Don't say that this isn't what you wanted

   Guitars 1 & 2
e|---------------------------------------|
B|---------------------------------------|
G|---------------------------------------|
D|--7-7-7-7\5-5/7-7-X-7-7-7-7\5-5/7-7-X--|
A|--7-7-7-7\5-5/7-7-X-7-7-7-7\5-5/7-7-X--|
E|--5-5-5-5\3-3/5-5-X-5-5-5-5\3-3/5-5-X--|
       A     G   A       A     G   A

   Bass
G|---------------------------------------|
D|---------------------------------------|
A|---------------------------------------|
E|--5-5-5-5\3-3/5-5-X-5-5-5-5\3-3/5-5-X--|
       A     G   A       A     G   A

   Guitars 1 & 2
e|--------------------------------------------|
B|--------------------------------------------|
G|--------X-10-10-10-X----------X-12-12-12-X--|
D|--7-7-7-X-10-10-10-X-10-10-10-X-12-12-12-X--|
A|--7-7-7-X-8--8--8--X-10-10-10-X-10-10-10-X--|
E|--5-5-5-X----------X-8--8--8--X----------X--|
      A        F          C          G

   Bass
G|--------------------------------------------|
D|--------------------------------------------|
A|----------8--8--8--X------------10-10-10-X--|
E|--5-5-5-X------------8--8--8--X-------------|
      A        F          C          G
       Don't tell me this isn't what you asked for

Outro-Chorus

   Guitar 1 (Art)
e|---------------------------------------------------------------|
B|---------------------------------------------------------------|
G|--------------------------10-10-10-10-10-10-10-10-10-10-10-10--|
D|--7-7-7-7-7-7-7-7-7-7-7-7-10-10-10-10-10-10-10-10-10-10-10-10--|
A|--7-7-7-7-7-7-7-7-7-7-7-7-8--8--8--8--8--8--8--8--8--8--8--8---|
E|--5-5-5-5-5-5-5-5-5-5-5-5--------------------------------------|
               A                             F

   Guitar 2 (Lead)
e|--5-5-8-8-5-5-8-8-5-5-8-8-5-5-8-8-5-5-8-8-5-5-8-8-5-5-8-8-5-5-8-8--|
B|-------------------------------------------------------------------|
G|-------------------------------------------------------------------|
D|-------------------------------------------------------------------|
A|-------------------------------------------------------------------|
E|-------------------------------------------------------------------|

   Bass
G|---------------------------------------------------|
D|---------------------------------------------------|
A|--------------------------8-8-8-8-8-8-8-8-8-8-8-8--|
E|--5-5-5-5-5-5-5-5-5-5-5-5--------------------------|
               A                       F
                   Be careful what you ask for, Be careful what you ask for

   Guitar 1 (rhythm)
e|---------------------------------------------------------------------------|
B|---------------------------------------------------------------------------|
G|--------------------------------------12-12-12-12-12-12-12-12-12-12-12-12--|
D|--10-10-10-10-10-10-10-10-10-10-10-10-12-12-12-12-12-12-12-12-12-12-12-12--|
A|--10-10-10-10-10-10-10-10-10-10-10-10-10-10-10-10-10-10-10-10-10-10-10-10--|
E|--8--8--8--8--8--8--8--8--8--8--8--8---------------------------------------|
                     C                                   G

   Guitar 2 (Lead)
e|--5-5-8-8-5-5-8-8-5-5-8-8-5-5-8-8-5-5-8-8-5-5-8-8-5-5-8-8-5-5-8-8--|
B|-------------------------------------------------------------------|
G|-------------------------------------------------------------------|
D|-------------------------------------------------------------------|
A|-------------------------------------------------------------------|
E|-------------------------------------------------------------------|

   Bass
G|---------------------------------------------------------------|
D|---------------------------------------------------------------|
A|--------------------------10-10-10-10-10-10-10-10-10-10-10-10--|
E|--8-8-8-8-8-8-8-8-8-8-8-8--------------------------------------|
               C                             G
               Be careful what you ask for, Yeah this is your American dream

   Guitar 1 (Art)
e|---------------------------------------------------------------|
B|---------------------------------------------------------------|
G|--------------------------10-10-10-10-10-10-10-10-10-10-10-10--|
D|--7-7-7-7-7-7-7-7-7-7-7-7-10-10-10-10-10-10-10-10-10-10-10-10--|
A|--7-7-7-7-7-7-7-7-7-7-7-7-8--8--8--8--8--8--8--8--8--8--8--8---|
E|--5-5-5-5-5-5-5-5-5-5-5-5--------------------------------------|
               A                             F

   Guitar 2 (Lead)
e|--5-5-8-8-5-5-8-8-5-5-8-8-5-5-8-8-5-5-8-8-5-5-8-8-5-5-8-8-5-5-8-8--|
B|-------------------------------------------------------------------|
G|-------------------------------------------------------------------|
D|-------------------------------------------------------------------|
A|-------------------------------------------------------------------|
E|-------------------------------------------------------------------|

   Bass
G|---------------------------------------------------|
D|---------------------------------------------------|
A|--------------------------8-8-8-8-8-8-8-8-8-8-8-8--|
E|--5-5-5-5-5-5-5-5-5-5-5-5--------------------------|
               A                       F
        Everything is simple in the white and the black, Never have to see 
the gray anymore

   Guitar 1 (rhythm)
e|---------------------------------------------------------------------------|
B|---------------------------------------------------------------------------|
G|--------------------------------------12-12-12-12-12-12-12-12-12-12-12-12--|
D|--10-10-10-10-10-10-10-10-10-10-10-10-12-12-12-12-12-12-12-12-12-12-12-12--|
A|--10-10-10-10-10-10-10-10-10-10-10-10-10-10-10-10-10-10-10-10-10-10-10-10--|
E|--8--8--8--8--8--8--8--8--8--8--8--8---------------------------------------|
                     C                                   G

   Guitar 2 (Lead)
e|--5-5-8-8-5-5-8-8-5-5-8-8-5-5-8-8-5-5-8-8-5-5-8-8-5-5-8-8-5-5-8-8--|
B|-------------------------------------------------------------------|
G|-------------------------------------------------------------------|
D|-------------------------------------------------------------------|
A|-------------------------------------------------------------------|
E|-------------------------------------------------------------------|

   Bass
G|---------------------------------------------------------------|
D|---------------------------------------------------------------|
A|--------------------------10-10-10-10-10-10-10-10-10-10-10-10--|
E|--8-8-8-8-8-8-8-8-8-8-8-8--------------------------------------|
               C                             G
                Never have to be afraid, Happy with the blackjack
  Outro

   Guitar 1 (rhythm)
e|---------------------------------------------------------------------------|
B|---------------------------------------------------------------------------|
G|---------------------------------------------------------------------------|
D|--7-7-7-7\5-5/7-7-X-7-7-7-7\5-5/7-7-X-7-7-7-7\5-5/7-7-X-7-7-7-7\5-5/7-7-X--|
A|--7-7-7-7\5-5/7-7-X-7-7-7-7\5-5/7-7-X-7-7-7-7\5-5/7-7-X-7-7-7-7\5-5/7-7-X--|
E|--5-5-5-5\3-3/5-5-X-5-5-5-5\3-3/5-5-X-5-5-5-5\3-3/5-5-X-5-5-5-5\3-3/5-5-X--|
       A     G   A       A     G   A       A     G   A       A     G   A

   Guitar 2 (Lead)
e|--5-5-8-8-5-5-8-8-5-5-8-8-5-5-8-8-5-5-8-8-5-5-8-8-5-5-8-8-5-5-8-8--|
B|-------------------------------------------------------------------|
G|-------------------------------------------------------------------|
D|-------------------------------------------------------------------|
A|-------------------------------------------------------------------|
E|-------------------------------------------------------------------|

   Bass
G|---------------------------------------------------------------------------|
D|---------------------------------------------------------------------------|
A|---------------------------------------------------------------------------|
E|--5-5-5-5\3-3/5-5-X-5-5-5-5\3-3/5-5-X-5-5-5-5\3-3/5-5-X-5-5-5-5\3-3/5-5-X--|
       A     G   A       A     G   A       A     G   A       A     G   A
                          Happy with the blackjack,      Happy with the 
blackjack

   Guitar 1 (rhythm)
e|---------------------------------------------------------------------------|
B|---------------------------------------------------------------------------|
G|---------------------------------------------------------------------------|
D|--7-7-7-7\5-5/7-7-X-7-7-7-7\5-5/7-7-X-7-7-7-7\5-5/7-7-X-7-7-7-7\5-5/7-7-X--|
A|--7-7-7-7\5-5/7-7-X-7-7-7-7\5-5/7-7-X-7-7-7-7\5-5/7-7-X-7-7-7-7\5-5/7-7-X--|
E|--5-5-5-5\3-3/5-5-X-5-5-5-5\3-3/5-5-X-5-5-5-5\3-3/5-5-X-5-5-5-5\3-3/5-5-X--|
       A     G   A       A     G   A       A     G   A       A     G   A

   Guitar 2 (Lead)
e|--5-5-8-8-5-5-8-8-5-5-8-8-5-5-8-8-5-5-8-8-5-5-8-8-5-5-8-8-5-5-8-8--|
B|-------------------------------------------------------------------|
G|-------------------------------------------------------------------|
D|-------------------------------------------------------------------|
A|-------------------------------------------------------------------|
E|-------------------------------------------------------------------|

   Bass
G|---------------------------------------------------------------------------|
D|---------------------------------------------------------------------------|
A|---------------------------------------------------------------------------|
E|--5-5-5-5\3-3/5-5-X-5-5-5-5\3-3/5-5-X-5-5-5-5\3-3/5-5-X-5-5-5-5\3-3/5-5-X--|
       A     G   A       A     G   A       A     G   A       A     G   A
                          Happy with the blackjack,     Happy with the 
blackjack

   Guitar 1 (rhythm)
e|---------------------------------------------------------------------------|
B|---------------------------------------------------------------------------|
G|---------------------------------------------------------------------------|
D|--7-7-7-7\5-5/7-7-X-7-7-7-7\5-5/7-7-X-7-7-7-7\5-5/7-7-X-7-7-7-7\5-5/7-7-X--|
A|--7-7-7-7\5-5/7-7-X-7-7-7-7\5-5/7-7-X-7-7-7-7\5-5/7-7-X-7-7-7-7\5-5/7-7-X--|
E|--5-5-5-5\3-3/5-5-X-5-5-5-5\3-3/5-5-X-5-5-5-5\3-3/5-5-X-5-5-5-5\3-3/5-5-X--|
       A     G   A       A     G   A       A     G   A       A     G   A

   Guitar 2 (Lead)
e|--5-5-8-8-5-5-8-8-5-5-8-8-5-5-8-8-5-5-8-8-5-5-8-8-5-5-8-8-5-5-8-8--|
B|-------------------------------------------------------------------|
G|-------------------------------------------------------------------|
D|-------------------------------------------------------------------|
A|-------------------------------------------------------------------|
E|-------------------------------------------------------------------|

   Bass
G|---------------------------------------------------------------------------|
D|---------------------------------------------------------------------------|
A|---------------------------------------------------------------------------|
E|--5-5-5-5\3-3/5-5-X-5-5-5-5\3-3/5-5-X-5-5-5-5\3-3/5-5-X-5-5-5-5\3-3/5-5-X--|
       A     G   A       A     G   A       A     G   A       A     G   A
                       This is your American dream,  This is your American 
dream

   Guitar 1 (rhythm)
e|-------------------------------------------------------------------|
B|-------------------------------------------------------------------|
G|-------------------------------------------------------------------|
D|--7-7-7-7\5-5/7-7-X-7-7-7-7\5-5/7-7-X-7-7---7-7---7-7---7-7---7-7--|
A|--7-7-7-7\5-5/7-7-X-7-7-7-7\5-5/7-7-X-7-7---7-7---7-7---7-7---7-7--|
E|--5-5-5-5\3-3/5-5-X-5-5-5-5\3-3/5-5-X-5-5---5-5---5-5---5-5---5-5--|
       A     G   A       A     G   A                 A

   Guitar 2 (Lead)
e|--5-5-8-8-5-5-8-8-5-5-8-8-5-5-8-8----------------------------------|
B|-------------------------------------------------------------------|
G|-------------------------------------------------------------------|
D|--------------------------------------7-7---7-7---7-7---7-7---7-7--|
A|--------------------------------------7-7---7-7---7-7---7-7---7-7--|
E|--------------------------------------5-5---5-5---5-5---5-5---5-5--|
                                                     A
   Bass
G|-------------------------------------------------------------------|
D|-------------------------------------------------------------------|
A|-------------------------------------------------------------------|
E|--5-5-5-5\3-3/5-5-X-5-5-5-5\3-3/5-5-X-5-5---5-5---5-5---5-5---5-5--|
       A     G   A       A     G   A
                 This is your American dream,          This is your American 
dream

VERSION 2 - Tabbed by Zach Larsen (Arod5903@yahoo.com).

Everclear – Blackjack (from live show (9/01/02)

Intro/Main Riff (Repeat):

-|--------------------------------------------------|-
-|--------------------------------------------------|-
-|--------------------------------------------------|-
-|--6-6-6—-4-4--6-6-----4-4--6-6--4-4--6-6----------|-
-|--6-6-6--4-4--6-6-----4-4--6-6--4-4--6-6----------|-
-|--4-4-4--2-2--4-4-----2-2--4-4--2-2--4-4----------|-


Verse
-|--------------------------------------------------|-
-|--------------------------------------------------|-
-|--------------------------------------------------|-
-|--6-6-6—-4-4--6-6-------6-6-6--4-4--6-6-----------|-
-|--6-6-6--4-4--6-6-------6-6-6--4-4--6-6-----------|-
-|--4-4-4--2-2--4-4-------4-4-4--2-2--4-4-----------|-
P.M. - - - - - - - - - - - - - - - - - - - - - - - - 
(Palm Mute may not actually be there, I have a bad sound quality live version 
that seems to have been recorded from inside the bass drum… J)

Chorus
-|--------------------------------------------------|-
-|--------------------------------------------------|-
-|-9-(x4)-------11(x4)------------------------------|-
-|-9-----9-(x4)-11----6-6-6-4-4-6-6--6-6-6-4-4-6-6--|-
-|-7-----9-------9----6-6-6-4-4-6-6--6-6-6-4-4-6-6--|-
-|-------7------------4-4-4-2-2-4-4--4-4-4-2-2-4-6--|-

Bridge thing
-|--------------------------------------------------|-
-|--------------------------------------------------|-
-|--------------------------------------------------|-
-|---6~v—--8/9~v—10~v--------------10~v-------------|-
-|--------------------------------------------------|-
-|--------------------------------------------------|-

During the end “This is your American dream...”
-|--4-4—7-7---4-4-7-7---4-4-7-7---4-4-7-7-----------|-
-|--------------------------------------------------|-
-|--------------------------------------------------|-
-|--------------------------------------------------|-
-|--------------------------------------------------|-
-|--------------------------------------------------|-


OK, well I missed a part, but I couldn’t hear that part enough to distinguish what it was, 
and being an ethical and responsible person, I can’t just jot something down and have people 
go around playing it wrong (or not on purpose anyway), so I left it out.  
Hopefully it’s enough to get you guys started. 
 Questions, comments, e-mail me (Arod5903@yahoo.com).
 
VERSION 3 - Tabbed by JR

Intro
e----------------------------------
b----------------------------------
g----------------------------------
d-6-6-6\4-4/6-6-6\4-4/6-6-6\4-4/6-6 Repeat
a-6-6-6\4-4/6-6-6\4-4/6-6-6\4-4/6-6
e-4-4-4\2-2/4-4-4\2-2/4-4-4\2-2/4-4 
                                    Ugh!

VERSE

e------------
b------------
g------------
d-6-6-6-6-6-X
a-6-6-6-6-6-X
e-4-4-4-4-4-X
Scary John Gets His Strong Arm On
He Can Make Me And Break Me 
Happy With His Blackjack

Scary John Gets His Heavy Hand On 
He smiles without his Eyes 
Nice And Easy With His Blackjack

Prechorus

e-----------------------------------------
b-----------------------------------------
g-9-9-9-9---------11-11-11-11-11-11-11-11-
d-9-9-9-9-9-9-9-9-11-11-11-11-11-11-11-11-
a-7-7-7-7-9-9-9-9-9--9--9--9--9--9--9--9--
e---------7-7-7-7-------------------------
Dont Tell Me That You Didnt See This Coming Down 

e------------------------------------------------------------------------
b------------------------------------------------------------------------
g------------------------------------------------------------------------
d-6-6-6\4-4/6-6-6\4-4/6-6-6\4-4/6-6-X-6-6-6\4-4/6-6-6\4-4/6-6-6\4-4/6-6-X
a-6-6-6\4-4/6-6-6\4-4/6-6-6\4-4/6-6-X-6-6-6\4-4/6-6-6\4-4/6-6-6\4-4/6-6-X
e-4-4-4\2-2/4-4-4\2-2/4-4-4\2-2/4-4-X-4-4-4\2-2/4-4-4\2-2/4-4-4\2-2/4-4-X 

e-----------------------------------------
b-----------------------------------------
g-9-9-9-9---------11-11-11-11-11-11-11-11-
d-9-9-9-9-9-9-9-9-11-11-11-11-11-11-11-11-
a-7-7-7-7-9-9-9-9-9--9--9--9--9--9--9--9--
e---------7-7-7-7-------------------------
 Please Dont Say That This Isnt What You Wanted Now

e------------------------------------------------------------------------
b------------------------------------------------------------------------
g------------------------------------------------------------------------
d-6-6-6\4-4/6-6-6\4-4/6-6-6\4-4/6-6-X-6-6-6\4-4/6-6-6\4-4/6-6-6\4-4/6-6-X
a-6-6-6\4-4/6-6-6\4-4/6-6-6\4-4/6-6-X-6-6-6\4-4/6-6-6\4-4/6-6-6\4-4/6-6-X
e-4-4-4\2-2/4-4-4\2-2/4-4-4\2-2/4-4-X-4-4-4\2-2/4-4-4\2-2/4-4-4\2-2/4-4-X 

Verse 2


e------------
b------------
g------------
d-6-6-6-6-6-X
a-6-6-6-6-6-X
e-4-4-4-4-4-X
Scary Johnny Gets His Strong Arm On 
He can Make Me And Brake Me 
Happy with his Blackjack

Scary John Always Knows Whats Going On 
He is everywhere 
Happy With His Black Jack 


Prechorus

e-----------------------------------------
b-----------------------------------------
g-9-9-9-9---------11-11-11-11-11-11-11-11-
d-9-9-9-9-9-9-9-9-11-11-11-11-11-11-11-11-
a-7-7-7-7-9-9-9-9-9--9--9--9--9--9--9--9--
e---------7-7-7-7-------------------------
Dont Tell Me That You Didnt See This Coming Down 

e------------------------------------------------------------------------
b------------------------------------------------------------------------
g------------------------------------------------------------------------
d-6-6-6\4-4/6-6-6\4-4/6-6-6\4-4/6-6-X-6-6-6\4-4/6-6-6\4-4/6-6-6\4-4/6-6-X
a-6-6-6\4-4/6-6-6\4-4/6-6-6\4-4/6-6-X-6-6-6\4-4/6-6-6\4-4/6-6-6\4-4/6-6-X
e-4-4-4\2-2/4-4-4\2-2/4-4-4\2-2/4-4-X-4-4-4\2-2/4-4-4\2-2/4-4-4\2-2/4-4-X 
                                                           No No No
e-----------------------------------------
b-----------------------------------------
g-9-9-9-9---------11-11-11-11-11-11-11-11-
d-9-9-9-9-9-9-9-9-11-11-11-11-11-11-11-11-
a-7-7-7-7-9-9-9-9-9--9--9--9--9--9--9--9--
e---------7-7-7-7-------------------------
 Please Dont Say That This Isnt What You Wanted Now

e------------------------------------------------------------------------
b------------------------------------------------------------------------
g------------------------------------------------------------------------
d-6-6-6\4-4/6-6-6\4-4/6-6-6\4-4/6-6-X-6-6-6\4-4/6-6-6\4-4/6-6-6\4-4/6-6-X
a-6-6-6\4-4/6-6-6\4-4/6-6-6\4-4/6-6-X-6-6-6\4-4/6-6-6\4-4/6-6-6\4-4/6-6-X
e-4-4-4\2-2/4-4-4\2-2/4-4-4\2-2/4-4-X-4-4-4\2-2/4-4-4\2-2/4-4-4\2-2/4-4-X 

Chorus

e---------------------------------------------------------
b---------------------------------------------------------
g-------------------------9-9-9-9-9-9-9-9-----------------
d-11-11-11-11-11-11-11-11-9-9-9-9-9-9-9-9--9-9-9-9-9-9-9-9
a-11-11-11-11-11-11-11-11-7-7-7-7-7-7-7-7--9-9-9-9-9-9-9-9
e-9--9--9--9--9--9--9--9-------------------7-7-7-7-7-7-7-7
 Yeah this is your American Dream
 Everything Is Simple With The White And The Black 
 You never have to see the gray anymore
 You will never have to be afraid
 When you are happy with the Blackjack

e--------------------------------------------------------------------
b--------------------------------------------------------------------
g--------------------------------------------------------------------
d-6-6-6\4-4/6-6-6\4-4/6-6-6\4-4/6-6-X-6-6-6\4-4/6-6-6\4-4/6-6-6\4-4-5
a-6-6-6\4-4/6-6-6\4-4/6-6-6\4-4/6-6-X-6-6-6\4-4/6-6-6\4-4/6-6-6\4-4-5
e-4-4-4\2-2/4-4-4\2-2/4-4-4\2-2/4-4-X-4-4-4\2-2/4-4-4\2-2/4-4-4\2-2-3
 When You Are Happy With The Black Jack 
 I Hope you're happy with the Black Jack

Middle Part: (bass arranged for guitar)

e----------
b----------
g----------
d-6-6-6-6-6
a-6-6-6-6-6
e-4-4-4-4-4
  Scary John wants To Kill My Song
 He doesn't like the fact 
 I'm not happy with the black jack 
 
 I dont Want to hear the words that he has to say e-yeah-e-yeah-e-yeah-e-yeah


e-----------------------------------------
b-----------------------------------------
g-9-9-9-9---------11-11-11-11-11-11-11-11-
d-9-9-9-9-9-9-9-9-11-11-11-11-11-11-11-11-
a-7-7-7-7-9-9-9-9-9--9--9--9--9--9--9--9--
e---------7-7-7-7-------------------------
Dont Tell Me That You Didnt See This Coming Down 

e------------------------------------------------------------------------
b------------------------------------------------------------------------
g------------------------------------------------------------------------
d-6-6-6\4-4/6-6-6\4-4/6-6-6\4-4/6-6-X-6-6-6\4-4/6-6-6\4-4/6-6-6\4-4/6-6-X
a-6-6-6\4-4/6-6-6\4-4/6-6-6\4-4/6-6-X-6-6-6\4-4/6-6-6\4-4/6-6-6\4-4/6-6-X
e-4-4-4\2-2/4-4-4\2-2/4-4-4\2-2/4-4-X-4-4-4\2-2/4-4-4\2-2/4-4-4\2-2/4-4-X 


e-----------------------------------------
b-----------------------------------------
g-9-9-9-9---------11-11-11-11-11-11-11-11-
d-9-9-9-9-9-9-9-9-11-11-11-11-11-11-11-11-
a-7-7-7-7-9-9-9-9-9--9--9--9--9--9--9--9--
e---------7-7-7-7-------------------------
Please Don't Tell me that this isnt what you wanted now

e------------------------------------------------------------------------
b------------------------------------------------------------------------
g------------------------------------------------------------------------
d-6-6-6\4-4/6-6-6\4-4/6-6-6\4-4/6-6-X-6-6-6\4-4/6-6-6\4-4/6-6-6\4-4/6-6-X
a-6-6-6\4-4/6-6-6\4-4/6-6-6\4-4/6-6-X-6-6-6\4-4/6-6-6\4-4/6-6-6\4-4/6-6-X
e-4-4-4\2-2/4-4-4\2-2/4-4-4\2-2/4-4-X-4-4-4\2-2/4-4-4\2-2/4-4-4\2-2/4-4-X 


e-----------------------------------------
b-----------------------------------------
g-9-9-9-9---------11-11-11-11-11-11-11-11-
d-9-9-9-9-9-9-9-9-11-11-11-11-11-11-11-11-
a-7-7-7-7-9-9-9-9-9--9--9--9--9--9--9--9--
e---------7-7-7-7-------------------------
 Please Dont Tell Me That This Isnt What You Asked For 


e---------------------------------------------------------
b---------------------------------------------------------
g-------------------------9-9-9-9-9-9-9-9-----------------
d-11-11-11-11-11-11-11-11-9-9-9-9-9-9-9-9--9-9-9-9-9-9-9-9
a-11-11-11-11-11-11-11-11-7-7-7-7-7-7-7-7--9-9-9-9-9-9-9-9
e-9--9--9--9--9--9--9--9-------------------7-7-7-7-7-7-7-7
    Be Careful What You Ask For 
  Be Careful What You Ask For
  Be Careful What You Ask For
  Yeah This Is Your American Dream 
  Oh Everything is simple with the white and the black 
  You never have to see the gray anymore 
  You will never have to be afraid
  When You Are Happy With The Blackjack 


e--------------------------------------------------------------------
b--------------------------------------------------------------------
g--------------------------------------------------------------------
d-6-6-6\4-4/6-6-6\4-4/6-6-6\4-4/6-6-X-6-6-6\4-4/6-6-6\4-4/6-6-6\4-4-5
a-6-6-6\4-4/6-6-6\4-4/6-6-6\4-4/6-6-X-6-6-6\4-4/6-6-6\4-4/6-6-6\4-4-5
e-4-4-4\2-2/4-4-4\2-2/4-4-4\2-2/4-4-X-4-4-4\2-2/4-4-4\2-2/4-4-4\2-2-3
When You Are Happy With The Blackjack
I Hope You're Happy With the Blackjack
When You Are Happy With The Blackjack
I Hope You're Happy With the Blackjack

Outro

e-----------------
b-----------------
g-----------------
d-4-4--4-4--4-4-5-
a-4-4--4-4--4-4-5-
e-2-2--2-2--2-2-3-
     UGH
     Yeah This Is Your American Dream
     This IS Your American Dream 
     This Is Your America Dream

e----
b----
g----
d-4-4
a-4-4
e-2-2
 This Is Your American Dream

JASON'S EVERCLEAR TABS - http://members.tripod.com/~panec/