"Blondes" (Bass)
As Recorded by Everclear on the "White Trash Hell" EP
Tabbed By Ashton Bailey (ashton_bailey@hotmail.com) and 
Lauren Ciechanowski (trggrhppyjack@aol.com) 

VERSION 1 - Tabbed by Ashton Bailey 

Key:
pm = palm mute
\ = slide up towards the neck
/ = slide down towards the body
fb = feedback
h = hammer
b = bend string
r = ring (let string ring)

Play this song with Heavy Distortion & a pick

   Intro
G|-----------|
D|-----------|
A|-----------| Repeat 4 times
E|--0-9-8-7--|
    E Db C B

   Main Verse
G|---------------------|
D|---------------------|
A|---------------------|
E|--0-9-9-0-9-0h9-8-7--|
    E Db E Db E Db C B

   Chorus
G|-----------------------------------------------------------|
D|-----------------------------------------------------------|
A|--------------------------------------------------4-4-4-4--|
E|--5-5-5-5-4-4-4-4-5-5-5-5-0-0-0-0-5-5-5-5-4-4-4-4----------|
       A       Ab      A       Em      A      Ab      Db

   Interlude
G|---------------------|
D|---------------------|
A|---------------------|
E|--0-9-9-0-9-0h9-8-7--|
    E Db E Db E Db C B

   That's the whole song !

VERSION 2 - Tabbed by Lauren Ciechanowski

INTRO:
G|----(4x)|--------------(4x)|
D|--------|------------------|
A|--------|------------------|
E|-0-9-8-7|-0-9-9-0-9-0-9-8-7|

VERSE 1:
 You are a loser just like I was
 You are a loser like the rest of your friends
 You're a loser in the worst way
 I think you're losing just to make up
G|------------------| (8x)
D|------------------| 
A|------------------| 
E|-0-9-9-0-9-0-9-8-7|

CHORUS:
 Yeah I have seen the light 
 All around your face
G|----------------|------------------|(2x)
D|----------------|------------------|
A|----------------|------------------|
E|-5-5-4-4-5-5-4-4|-0-9-9-0-9-0-9-8-7|

VERSE 2:
 I see you dying on the highway
 I see you climbing up the hill
 I see the sunshine on your blonde hair
 I see you worshipping the thrill
G|------------------| (8x)
D|------------------| 
A|------------------| 
E|-0-9-9-0-9-0-9-8-7|

CHORUS:
  Yeah I've seen the light
 All around your face
 I have seen the light
 Shine in your eyes
G|------------------------------------------------|------------------|
D|------------------------------------------------|------------------|
A|------------------------------------------------|------------------|
E|-5-5-5-5-4-4-4-4-5-5-5-5-0-0-0-0-5-5-5-5-4-4-4-4|-0-9-9-0-9-0-9-8-7|

 I've seen the light
 Light from another place
 Now I know it's not real
 Yes I know it's not real
 Yes I know it's not real
G|--------------------------------------------|--------------(4x)|
D|--------------------------------------------|------------------|
A|--------------------------------------------|------------------|
E|-5-5-5-5-4-4-4-4-5-5-5-5-0-0-0-0-5-5-5-5-4-4|-0-9-9-0-9-0-9-8-7|

BREAK:
G|-------------(10x)|--------------------------------|
D|------------------|--------------------------------|
A|------------------|--------------------------------|
E|-0-9-9-0-9-0-9-8-7|-0-9-7-8-0-9-8-7-0-9-8-7-0-9-8-7|

CHORUS:
 Yeah I've seen the light
 All around your face
 Yeah I've seen the light
 Shine in your eyes 
G|------------------------------------------------|------------------|
D|------------------------------------------------|------------------|
A|------------------------------------------------|------------------|
E|-5-5-5-5-4-4-4-4-5-5-5-5-0-0-0-0-5-5-5-5-4-4-4-4|-0-9-9-0-9-0-9-8-7|

 Yeah I've seen the light
 From another place
 Now I know it's not real
 I know it's not real...
G|--------------------------------------------|--------------(8x)|
D|--------------------------------------------|------------------|
A|--------------------------------------------|------------------|
E|-5-5-5-5-4-4-4-4-5-5-5-5-0-0-0-0-5-5-5-5-4-4|-0-9-9-0-9-0-9-8-7|

JASON'S EVERCLEAR TABS - http://members.tripod.com/~panec/