The Boys Are Back In Town (bass)
As recorded by Everclear on the "Detroit Rock City OST"
Tabbed by Patrick McFadden  (FredDust207@cs.com)

Main
G|-----------------------------------------------| 
D|-----------------------------------------------| 
A|------------------55555555-33333333------------| 
E|-3333333333333333------------------------------|

Verse
G|----------------------------------------------------------------| 
D|----------------------------------------------------------------| 
A|-----------------3333-33-------------------------3333-33-5555-55| 
E|-3333-33-7777-77---------0000-00-7777-77-0000-00----------------|

Break
G|-----------------------------------------------| 
D|-----------------------------------------------| 
A|-----------5555-3333---------------------------| 
E|-3333-3333-------------------------------------|

Break Variation 1(Break 2)
G|-----------------------------------------------| 
D|-----------------------------------------------| 
A|-----------------------------------------------| 
E|-33333333-555555555----------------------------|

Break Variation 2 (Break 3)
G|-----------------------------------------------| 
D|-----------------------------------------------| 
A|-----------------5-5-5-5--3-3-3-3--------------| 
E|-3-3-3-3-3-3-3-3-------------------------------|

Break Outro
G|-----------------------------------------------| 
D|-----------------------------------------------| 
A|----------------3333---------------------------| 
E|-3333-5555-7777--------------------------------|

Main		2x
Verse		2x
Main		2x
Verse		2x
Main		3x
Break		3x
Break 2	1x
Break 3	3x
B Outro	1x
Verse		2x
Main		2x
Break		6x
Main		Fade Out

JASON'S EVERCLEAR TABS - http://members.tripod.com/~panec/