Carolea (Guitar)
As recorded by Colorfinger on "Deep In The Heart Of The Beast Of The Sun"
Tabbed by Hugh Yik (hyik@nb.sympatico.ca) and Ashton Bailey (ashton_bailey@hotmail.com)

VERSION 1 - Tabbed by Hugh Yik

Chords
   Em D C G
e|-0--2-0-3-|
B|-0--3-1-3-|
G|-0--2-0-0-|
D|-2--0-2-0-|
A|-2----3-2-|
E|-0------3-|


Riff 1-
    Em  D  C  G

Riff 2(verse)-
    G  C  D  G 

Riff 3-
    Em C  Em D  Em C  Em D  Em C  Em D   C      D  

Riff 4- 
    Em D  Em C  Em D  C  G (x2)

Back to "Riff 2" a few times.

                 !!!MORE TO COME SOON!!!

VERSION 2 - Tabbed by Ashton Bailey

Main Riff
e|----------------------|
B|----------------------|
G|--9-9--7-7------------|
D|--9-9--7-7--9-9--5-5--|
A|--7-7--5-5--9-9--5-5--|
E|------------7-7--3-3--|
    E     D    B    G

Chorus ???

B...D...

or

C...D...

Anybody know ???

JASON'S EVERCLEAR TABS - http://members.tripod.com/~panec/