Chemical Smile
As recorded by Everclear on "Sparkle and Fade" LP
Tabbed by George Kemper (onehitwonderland@hotmail.com)

|------------|-----------------------------------------------|
|------------|-----------------------------------------------|
|--------6-7-|----6-7----------------------------------------|
|--------6-7-|-77-6-7-Repeat-7x------------------------------|
|--------4-5-|-77-4-5----------------------------------------|
|-15/5-5-----|-55--------------------------------------------|

|------------------------------------------------------------|
|------------------------------------------------------------|
|------------------------------------------------------------|
|-44444444-55555555------------------------------------------|
|-44444444-55555555------------------------------------------|
|-22222222-33333333------------------------------------------|

|------------------------------------------------------------|
|------------------------------------------------------------|
|----6-7-----------------------------------------------------|
|-77-6-7-Repeat-5x-------------------------------------------|
|-77-4-5-----------------------------------------------------|
|-55---------------------------------------------------------|

|------------------------------------------------------------|
|------------------------------------------------------------|
|------------------------------------------------------------|
|-44444444-55555555------------------------------------------|
|-44444444-55555555------------------------------------------|
|-22222222-33333333------------------------------------------|

|------------------------------------------------------------|
|------------------------------------------------------------|
|----6-7-----------------------------------------------------|
|-77-6-7-Repeat-1x-------------------------------------------|
|-77-4-5-----------------------------------------------------|
|-55---------------------------------------------------------|

|------------------------------------------------------------|
|------------------------------------------------------------|
|-44444444/77777777------------------------------------------|
|-44444444/77777777-Palm-Muted-------------------------------|
|-22222222/55555555------------------------------------------|
|------------------------------------------------------------|

|------------------------------------------------------------|
|------------------------------------------------------------|
|----6-7-----------------------------------------------------|
|-77-6-7-Repeat-1x-------------------------------------------|
|-77-4-5-----------------------------------------------------|
|-55---------------------------------------------------------|

|------------------------------------------------------------|
|------------------------------------------------------------|
|-44444444/77777777------------------------------------------|
|-44444444/77777777-Palm-Muted-------------------------------|
|-22222222/55555555------------------------------------------|
|------------------------------------------------------------|

|------------------------------------------------------------|
|------------------------------------------------------------|
|----6-7-----------------------------------------------------|
|-77-6-7-Repeat-1x-------------------------------------------|
|-77-4-5-----------------------------------------------------|
|-55---------------------------------------------------------|

|------------------------------------------------------------|
|------------------------------------------------------------|
|------------------------------------------------------------|
|-7-Repeat-31x-Palm-Muted------------------------------------|
|-7----------------------------------------------------------|
|-5----------------------------------------------------------|

|------------------------------------------------------------|
|------------------------------------------------------------|
|------------------------------------------------------------|
|-44444444-55555555------------------------------------------|
|-44444444-33333333------------------------------------------|
|-22222222-33333333------------------------------------------|

|------------------------------------------------------------|
|------------------------------------------------------------|
|----6-7-----------------------------------------------------|
|-77-6-7-Repeat-1x-------------------------------------------|
|-77-4-5-----------------------------------------------------|
|-55---------------------------------------------------------|

|------------------------------------------------------------|
|------------------------------------------------------------|
|------------------------------------------------------------|
|-7-Repeat-31x-Palm-Muted------------------------------------|
|-7----------------------------------------------------------|
|-5----------------------------------------------------------|


|------------------------------------------------------------|
|------------------------------------------------------------|
|-------------------------------------77777777---------------|
|-44444444-55555555-77777777-99999999-77777777-33333333------|
|-44444444-55555555-77777777-99999999-55555555-33333333------|
|-22222222-33333333-55555555-77777777----------11111111------|

|------------------------------------------------------------|
|------------------------------------------------------------|
|----6-7-----------------------------------------------------|
|-77-6-7-Repeat-1x-------------------------------------------|
|-77-4-5-----------------------------------------------------|
|-55---------------------------------------------------------|

|------------------------------------------------------------|
|------------------------------------------------------------|
|------------------------------------------------------------|
|-77777777-66666666-55555555-4444444-3-Palm-Muted------------|
|-77777777-66666666-55555555-4444444-3-----------------------|
|-55555555-44444444-33333333-2222222-1-----------------------|

|------------------------------------------------------------|
|------------------------------------------------------------|
|------------------------------------------------------------|
|-77777777-66666666-55555555-4444444-33333333--2-Palm-Muted--|
|-77777777-66666666-55555555-4444444-33333333--2-------------|
|-55555555-44444444-33333333-2222222-11111111--0-------------|

|------------------------------------------------------------|
|------------------------------------------------------------|
|----6-7-----------------------------------------------------|
|-77-6-7-Repeat-15x------------------------------------------|
|-77-4-5-----------------------------------------------------|
|-55---------------------------------------------------------|

|------------------------------------------------------------|
|------------------------------------------------------------|
|-------------------------------------7-7-7-7-7-7-7-7--------|
|-44444444-55555555-77777777-99999999-7-7-7-7-7-7-7-7--------|
|-44444444-55555555-77777777-99999999-5-5-5-5-5-5-5-5--------|
|-22222222-33333333-55555555-77777777------------------------|

|------------------------------------------------------------|
|------------------------------------------------------------|
|------------------------------------------------------------|
|-3--3--3--3--3--3--7-Let-It-Ring-7/3------------------------|
|-3--3--3--3--3--3--7-------------7/3------------------------|
|-1--1--1--1--1--1--5-------------5/1------------------------|

JASON'S EVERCLEAR TABS - http://members.tripod.com/~panec/