Chemical Smile (bass)
As recorded by Everclear on "Sparkle and Fade" LP
Tabbed by Copper (CopperForever@AOL.COM)

Intro:
G---------
D---------
A-333-555-
E---------

Verse(variation A):
G------------------
D------------------
A------333-555-----
E-5555-------------

Verse(variation B):
G-------------------
D-------------------
A-------------------
E-33333333-55555555-
She gets lost inside the happy noise

Verse(variation C):
G-------------------
D-------------------
A-33333333-55555555-
E-------------------
Sometimes I don't understand her

Verse(variation D):*note-play each not eight times
G-------------
D-------------
A-----1-3-5---
E-3-5-------3-

Chorus:*note-play each note eight times
G-----------
D-----------
A-1-------1-
E---5-3-1---

Outro Part 1:
G-----|-------------
D-----|-------------
A-1/5-|-----333-555-
E-----|3333---------
Slide in right after the guitar plays the verse alone, then play verse
variation A.

Outro Part 2:
G----------------------
D----------------------
A--------5-5-5-5-5-5---
E--------------------3-
She said...............

JASON'S EVERCLEAR TABS - http://members.tripod.com/~panec/