Chrysanthemum 
As recorded by Everclear on "Slowmotion Daydream"
Tabbed By Jason P (jasonsevercleartabs@hotmail.com) and Zach Larsen  (ARod5903@aol.com)

VERSION 1 - Tabbed by Jason P

Tuned half a step down

   (Acoustic)
Eb|-------------------------------------------| x4
Bb|-------------------------------------------| 
Gb|-------0--------0----------0--------0------|
Db|-----9--------9---------11--------9--------|
Ab|---7-----7/10-----10/12-----12\10-----10\--|
Eb|-------------------------------------------|
(no lyrics first two times)
Yes I hate the way I feel, And it makes no sense.
Five months gone and all I got, Pretty pink flowers on a chain-link fence.

   (acoustic)
Eb|--------------------------------------------------------|
Bb|--------------------------------------------------------|
Gb|-------0--------0----------0-------0-------0-------0----|
Db|-----9--------9---------11-------4-------2-------1------|
Ab|---7-----7/10-----10/12-----12\5-----5\3-----3\2-----2--|
Eb|--------------------------------------------------------|
  |(electric)                                              |
Eb|--------------------------------------------------------|
Bb|--------------------------------------------------------| 
Gb|--------------------------------------------------------|
Db|--------------------------------------------------------|
Ab|-------------------------------5-------3-------2--------|
Eb|--------------------------------------------------------|
And I don't like what it means, Cause I know there is more to come,
I can't go home without chrysanthemum

   (Acoustic)
Eb|-------------------------------------------| 
Bb|-------------------------------------------| 
Gb|-------0--------0----------0--------0------|
Db|-----9--------9---------11--------9--------|
Ab|--/7-----7/10-----10/12-----12\10-----10\--|
Eb|-------------------------------------------|
  |(electric)                                 |
Eb|-------------------------------------------|
Bb|-------------------------------------------| 
Gb|-------------------------------------------|
Db|-------------------------------------------|
Ab|--/7---------------------------------------|
Eb|-------------------------------------------|

   (Acoustic)
Eb|-------------------------------------------| x2
Bb|-------------------------------------------| 
Gb|-------0--------0----------0--------0------|
Db|-----9--------9---------11--------9--------|
Ab|--\7-----7/10-----10/12-----12\10-----10\--|
Eb|-------------------------------------------|
  |(electric)                                 |
Eb|-------------------------------------------|
Bb|-------------------------------------------| 
Gb|-------------------------------------------|
Db|-------0--------0----------0--------0------|
Ab|-----2--------2--------4----------2--------|
Eb|---0-----0/3-------3/5-------5\3-------3\--|
I walk around lost, And I don't know why.
Don't see the places or all the faces, That I should recognize.

   (Acoustic)
Eb|------------------------------------------|
Bb|------------------------------------------| 
Gb|-------0--------0----------0--------0-----|
Db|-----9--------9---------11--------4-------|
Ab|---7-----7/10-----10/12-----12\5------5\--|
Eb|------------------------------------------|
  |(electric)                                |
Eb|------------------------------------------|
Bb|------------------------------------------| 
Gb|------------------------------------0-----|
Db|-------0--------0----------0------4-------|
Ab|-----2--------2--------4-------5------5\--|
Eb|---0-----0/3-------3/5-------5------------|
It's like that dream where it feels like home, But it don't look right.

   (Acoustic and Electric)
Eb|----------------------------------------| x2
Bb|----------------------------------------| 
Gb|-------0-------0------------------------|
Db|-----2-------1----------0--------0------|
Ab|---3-----3\2-----2----2--------2--------|
Eb|--------------------0-----0/3-------3---|
Yes I will look everywhere tonight.
I will not stop until I make things right

   (Acoustic and Electric)
Eb|------------------------------------|
Bb|------------------------------------| 
Gb|-------0-------0-------0-------0----|
Db|-----2-------1-------2-------4------|
Ab|---3-----3\2-----2/0-----0/5-----5\-|
Eb|------------------------------------|
I can't go home until I see the sun,

   (Acoustic and Electric)
Eb|-------------------------------------|
Bb|-------------------------------------| 
Gb|-------0-------0---------------------|
Db|-----2-------1---1-------------------|
Ab|--\3-----3\2-------/7---7------------|
Eb|----------------------0--------------|
I can't go home without chrysanthemum.

  (Just acoustic, slower)
Eb|-------------------------------------|
Bb|-------------------------------------| 
Gb|-------0-------0---------------------|
Db|-----2-------1---1-------------------|
Ab|---3-----3\2-------/7---7------------|
Eb|----------------------0--------------|
No, I can't go home without chrysanthemum.

VERSION 2 - Tabbed by Zach Larsen

It's all dropped to flats (half-step).

Main Riff
Eb-|-----------------------------------------|-
Bb-|-----------------------------------------|- (x4)
Gb-|-------0-------0--------0------0---------|-
Db-|-----7--7-----7--7-----9-8---7--7--------|-
Ab-|---5-------5/8-----8/10-----8------------|-
Eb-|-----------------------------------------|-


Eb-|-----------------------------------------------------|-
Bb-|-----------------------------------------------------|-
Gb-|-------0-------0--------0------0--------0------0-----|-
Db-|-----7--7-----7--7-----9-8---5--5-----2---2---2--2---|-
Ab-|---5-------5/8-----8/10-----3--------1------0--------|-
Eb-|-----------------------------------------------------|-
"And I don't like what it means..."

Immediately start into next riff.

There are slight variations on the order near the end, but you should be able to get that down from here.

Lyrics

Yes I hate the way I feel,
And it makes no sense.
Five months gone and all I got, 
Pretty pink flowers on a chain-link fence.
And I don't like what it means,
Cause I know there is more to come,
I can't go home without chrysanthemum

I walk around lost,
And I don't know why.
Don't see the places or all the faces,
That I should recognize.
It's like that dream where it feels like home,
But it don't look right.
Yes I will look everywhere tonight.
I will not stop till I see the sun,
I can't go home without chrysanthemum.
No, I can't go home without chrysanthemum.

JASON'S EVERCLEAR TABS - http://members.tripod.com/~panec/