Chucklehead's Lament
As recorded by Colorfinger on "DITHOTBITS"
Tabbed by Jason P (jasonsevercleartabs@hotmail.com)

I'm not guaranteeing much accuracy with this one. This is from a quick run through 
and I spent all of five minutes on it. But, hey, it's something.

Intro
e|-(5)\-9-8-(5)\-9-8--|
B|-(3)\-7-7-(3)\-7-7--|
G|--------------------|
D|--------------------|
A|--------------------|
E|--------------------|

Verse
e|----------------------------------|
B|------------------3-3-3-----------|
G|-2-2-5--2-5-2-5-0-2-2-5-----------|
D|-2-2-2--2-2-2-2-0-0-0-0---0-------|
A|-0-0-0--0-0-0-0-0-----------3-0---|
E|--------------------------------3-|

Chorus
F  C  G  C   F  C  G  G x3
F  C  G  C   F  C     D      F (high)

With the riff below over the top
e|-8---8---8---8---|
B|---8---8---8---8-|
G|-----------------|

JASON'S EVERCLEAR TABS - http://members.tripod.com/~panec/