"Crazy Train" (Acoustic Live) (Guitar & Bass Tab)
As Recorded by Everclear on some Bootleg
Tabbed By Ashton Bailey (ashton_bailey@hotmail.com) and Russel Wilkins (Russelwilkins@aol.com)

VERSION 1 - Tabbed by Ashton Bailey
Key:
pm = palm mute
\ = slide up towards the neck
/ = slide down towards the body
fb = feedback
h = hammer
b = bend string
r = ring (let string ring)
H = Harmonics

   Intro
Bass
G|----------------------------------------------------------|
D|----------------------------------------------------------|
A|--------------------------------------5--5----------------|
E|--2--2-------5--5---0--0---2--2--------------0--0---2--2--|
     F#         A      Em     F#         D      Em     F#
                                                       Aye (Aye Aye...)

G|----------------------------------------------------------|
D|----------------------------------------------------------|
A|--------------------------------------5--5----------------|
E|--2--2-------5--5---0--0---2--2--------------0--0---2--2--|
     F#         A      Em     F#         D      Em     F#

   Note Pick scarpe first time only (Duh !)
e|---------------------------------------------------|
B|---------------------------------------------------|
G|---------------------------------------------------|
D|--Pick Scrape\\\-----------------------------------| Repeat 3 times then
A|--Pick Scrape\\\------4---5---4---2-------2--------|
E|--Pick Scrape\\\--2-2---2---2---2---5-4-5---5-4-0--|


G|----------------------------------------------------------|
D|----------------------------------------------------------|
A|--------------------------------------5--5----------------| Repeat
E|--2--2-------5--5---0--0---2--2--------------0--0---2--2--| 3 times
     F#         A      Em     F#         D      Em     F#

e|------------------------------------------|
B|------------------------------------------|
G|-------------------7-7-7-7-7/9-9-9-9-9-9--|
D|-------------------7-7-7-7-7/9-9-9-9-9-9--|
A|------4---5---4----5-5-5-5-5/7-7-7-7-7-7--|
E|--2-2---2---2---2-------------------------|
                         D           E

G|---------------------------------------------------------|
D|---------------------------------------------------------|
A|----------------------------------5-5-5-5-5/7-7-7-7-7-7--|
E|--2--2-------5--5---0--0---2--2--------------------------|
     F#         A      Em     F#        D          E

   Main Verse
e|--------------------------------------------|
B|--------------------------------------------|
G|------2---------6---------4---------2-2-----|
D|------2---------6---------4---------2-2-----|
A|--0-0-0-0-0-0-0-4-0-0-0-0-2-0-0-0-0-0-0-----|
E|----------------------------------------4b--|
PM  * *   * * * *   * * * *   * * * *
        A         Db        B          A

G|--------------------------------------------|
D|--------------------------------------------|
A|--0-0-0-0-0-0-0-4-0-0-0-0-2-0-0-0-0-0-0-----|
E|----------------------------------------4b--|
           A      Db   A    B    Ab       Ab

e|--------------------------------------------|
B|--------------------------------------------|
G|------2---------6---------4---------2-2-----|
D|------2---------6---------4---------2-2-----|
A|--0-0-0-0-0-0-0-4-0-0-0-0-2-0-0-0-0-0-0-----|
E|----------------------------------------4b--|
PM  * *   * * * *   * * * *   * * * *
        A         Db        B          A

G|--------------------------------------------|
D|--------------------------------------------|
A|--0-0-0-0-0-0-0-4-0-0-0-0-2-0-0-0-0-0-0-----|
E|----------------------------------------4b--|
           A      Db   A    B    Ab       Ab

e|--------------------------------------------|
B|--------------------------------------------|
G|------2---------6---------4---------2-2-----|
D|------2---------6---------4---------2-2-----|
A|--0-0-0-0-0-0-0-4-0-0-0-0-2-0-0-0-0-0-0-----|
E|----------------------------------------4b--|
PM  * *   * * * *   * * * *   * * * *
        A         Db        B          A
             crazy       But that's how it goes

G|--------------------------------------------|
D|--------------------------------------------|
A|--0-0-0-0-0-0-0-4-0-0-0-0-2-0-0-0-0-0-0-----|
E|----------------------------------------4b--|
           A      Db   A    B    Ab       Ab

e|--------------------------------------------|
B|--------------------------------------------|
G|------2---------6---------4---------2-2-----|
D|------2---------6---------4---------2-2-----|
A|--0-0-0-0-0-0-0-4-0-0-0-0-2-0-0-0-0-0-0-----|
E|----------------------------------------4b--|
PM  * *   * * * *   * * * *   * * * *
        A         Db        B          A
          Millions of people live in dispose

G|--------------------------------------------|
D|--------------------------------------------|
A|--0-0-0-0-0-0-0-4-0-0-0-0-2-0-0-0-0-0-0-----|
E|----------------------------------------4b--|
           A      Db   A    B    Ab       Ab

e|--------------------------------------------|
B|--------------------------------------------|
G|------2---------6---------4---------2-2-----|
D|------2---------6---------4---------2-2-----|
A|--0-0-0-0-0-0-0-4-0-0-0-0-2-0-0-0-0-0-0-----|
E|----------------------------------------4b--|
PM  * *   * * * *   * * * *   * * * *
        A         Db        B          A
           mmmmmmm          it's not too late

G|--------------------------------------------|
D|--------------------------------------------|
A|--0-0-0-0-0-0-0-4-0-0-0-0-2-0-0-0-0-0-0-----|
E|----------------------------------------4b--|
           A      Db   A    B    Ab       Ab

e|--------------------------------------------|
B|--------------------------------------------|
G|------2---------6---------4---------2-2-----|
D|------2---------6---------4---------2-2-----|
A|--0-0-0-0-0-0-0-4-0-0-0-0-2-0-0-0-0-0-0-----|
E|----------------------------------------4b--|
PM  * *   * * * *   * * * *   * * * *
        A         Db        B          A
          to learn how to love

G|--------------------------------------------|
D|--------------------------------------------|
A|--0-0-0-0-0-0-0-4-0-0-0-0-2-0-0-0-0-0-0-----|
E|----------------------------------------4b--|
           A      Db   A    B    Ab       Ab

e|--------------------------------------------|
B|--------------------------------------------|
G|------2---------6---------4---------2-2-----|
D|------2---------6---------4---------2-2-----|
A|--0-0-0-0-0-0-0-4-0-0-0-0-2-0-0-0-0-0-0-----|
E|----------------------------------------4b--|
PM  * *   * * * *   * * * *   * * * *
        A         Db        B          A
           forget how to hate

G|--------------------------------------------|
D|--------------------------------------------|
A|--0-0-0-0-0-0-0-4-0-0-0-0-2-0-0-0-0-0-0-----|
E|----------------------------------------4b--|
           A      Db   A    B    Ab       Ab

   Chorus
e|------------------------|
B|------------------------|
G|-------------7-----7H~--|
D|--4-2-4---4--7---7H~----|
A|--4-2-4---4--5-5H~------|
E|--2-0-2---2-------------|
   F# Em  F#   D

G|----------------|
D|----------------|
A|-------------5--|
E|--2-0-2---2-----|
   F# Em  F#   D

*****TAPE ENDS HERE*****

But if your interested here's how the rest of the Chorus goes

e|-----------------------------------------------|
B|-----------------------------------------------|
G|-------------7-----7H~------------------7-7-7--|
D|--4-2-4---4--7---7H~---------4-2-4---4--7-7-7--|
A|--4-2-4---4--5-5H~-----------4-2-4---4--5-5-5--|
E|--2-0-2---2------------------2-0-2---2---------|
   F# Em  F#   D              F# Em  F#     D

G|-----------------------------------------------|
D|-----------------------------------------------|
A|-------------5--------------------------5-5-5--|
E|--2-0-2---2------------------2-0-2---2---------|
   F# Em  F#   D              F# Em  F#     D

e|-----------------------------------|
B|-------------=---------------------|
G|--------2-2-2-2--------------------|
D|--------2-2-2-2-----2-2-2-2-2------|
A|--5-4-2-0-0-0-0-----2-2-2-2-2------|
E|----------------4-2-0-0-0-0-0-2-4--|
    D Db B  A    Ab F#   Em    F# Ab

G|-----------------------------------|
D|-----------------------------------|
A|--5-4-2-0-0-0-0--------------------| Repeat then
E|----------------4-2-0-0-0-0-0-2-4--|
    D Db B  A    Ab F#   Em    F# Ab

e|-------------------------|
B|-------------------------|
G|--7-7-7-7-7/9-9-9-9-9-9--|
D|--7-7-7-7-7/9-9-9-9-9-9--|
A|--5-5-5-5-5/7-7-7-7-7-7--|
E|-------------------------|
        D          E

G|-------------------------|
D|-------------------------|
A|--5-5-5-5-5/7-7-7-7-7-7--|
E|-------------------------|
        D          E

The back to the Main Verse, then the chorus, the the solo....
But this should get you started.

VERSION 2 - Tabbed by Russel Wilkins

I am a huge Ozzy fan and a huge everclear fan... Anyways while exploring your 
site I found that your Crazy Train tab was incorrect. Art seems to be playing exactly what 
Randy played.

Bass Riff For Guitar: X2
|-----------------------------------|
|-----------------------------------|
|-----------------------------------|
|-----------------------------------|
|--------------------------5-5--7-7-|
|--2-2----5-5--0-0--2-2-------------|

PICK SLIDE

Intro: X3
|----------------------------------|
|----------------------------------|
|----------------------------------|
|----------------------------------|
|------4---5---4---2-0---0-2-0-----|
|--2-2---2---2---2-----4-------4-0-|
 X1
|------------------2-2-2--0-0-0-|
|------------------3-3-3--0-0-0-|
|------------------2-2-2--1-1-1-|
|------------------0-0-0--2-2-2-|
|------4---5---4----------2-2-2-|
|--2-2---2---2---2--------0-0-0-|

Main Riff: X10                    Fill On Second Time Only:
|-----0-----0-----2-----0|-------|------------------------|
|-----2-----0-----3-----2|-------|------------------------|
|-----2-----1-----2-----2|-------|----4p2p0---------------|
|-----2-----2-----0-----2|-------|----------4p2p0---------|
|-0-0-0-0-0-2-0-0---0-0-0|-4-2-0-|---------------4p2p0----|
|-----------0------------|-------|------------------------|

Chorus:             Harmonics
|-----------------------x5x--|
|---------------------x5x----|
|-------------------x5x------|
|--4-4-4---4-4-7-------------|
|--4-4-4---4-4---------------|
|--2-0-2---2-0---------------|

The Song Ends Here Because Art Screws Up
This Is How Randy Rhoads Played It With Ozzy

 Intro:
|--------------------------------------
|--------------------------------------
|--------------------------------------
|--------------------------------------
|------4---5---4------2-0---0-2-0------
|--2-2---2---2---2--------4-------4-0--


|---------------------2---0---
|---------------------3---0---
|---------------------2---1---
|---------------------0---2---
|------4---5---4----------2---
|--2-2---2---2---2--------0---

Verse:                                        Fill:
|---------0-------0-------2-------0--|-------|---------------------------
|---------2-------0-------3-------2--|-------|---------------------------
|---------2-------1-------2-------2--|-------|--4p2p0--------------------
|---------2-------2-------0-------2--|-------|--------4p2p0--------------
|--0--0-0-0-0-0-0-2-0-0-0---0-0-0-0--|-4-2-0-|--------------4p2p0--------
|-----------------0------------------|-------|--------------------4p2p0--

Chorus:
|-----------------x5x-----------------------
|---------------x5x-------------------------
|-----------7-x5x---------------------------
|--4-4-4--4-7-----------4-4-4--4-7----------
|--4-4-4--4-5-----------4-4-4--4-7--4-2-0---
|--2-0-2--2-------------2-0-2--2-5--------4-

|-----------------------------
|-----------------------------
|-2--2-2----------------------
|-2--2-2-------2--2-2--2-2-2--
|-0--0-0-------2--2-2--2-2-2--
|----------4-2-0--0-0--0-0-0--

I think the fill goes like this:
|------------------------------------------------------------
|--0h2t7p5p2h3p2p0h2p0---------------------------------------
|----------------------2h4p2---------------------------------
|----------------------------4p2h4p2-------------------------
|------------------------------------4p3p2h3p2p0h2h3p2h3p2p0-
|------------------------------------------------------------

|-----------------------------
|-----------------------------
|-2--2-2----------------------
|-2--2-2-------2--2-2--2-2-2--
|-0--0-0-------2--2-2--2-2-2--
|----------4-2-0--0-0--0-0-0--

|--------------------------------------------------------
|--------------------------------------------------------
|---------x-x------------------------------x-x--7-7-7--9-
|--4-4-4--x-x--4-4--7-7-7---2-2-2---4-4-4--x-x--7-7-7--9-
|--4-4-4--x-x--4-4--7-7-7---2-2-2---4-4-4--x-x--5-5-5--7-
|--2-0-2-------2-2--5-5-5---0-0-0---2-0-2----------------

I'm really not sure about this fill but if you play this fast 
enought it sounds right:

|-------------------------------------------------------------
|--------------------------12h14h16-13h15h17-14h16h18-15h17h19
|13h15h17-14h16h18-15h17h19-----------------------------------
|-------------------------------------------------------------
|-------------------------------------------------------------
|-------------------------------------------------------------

|11h13h15-12h14h16-13h15h17-14p16p18-15h17h19\\\\
|------------------------------------------------
|------------------------------------------------
|------------------------------------------------
|------------------------------------------------
|------------------------------------------------

|--------------------------------------------------------------------------------
|------------------------------------------3------5------------------------------
|--11--11\\-2--2-----------------11--11\\--2------4------------------------------
|--11--11\\-2--2-----2--2--------11--11\\--0------2------------------------------
|--9---9\\\-0--0-----2--2--------9---9\\\----------------------------------------
|----------------4-2-0--0--4^0---------------------------------------------------

Solo:
|------------------------------------------------------------------------------------------------
|-t14p10p7h10-t14p10p7h10-t14p10p7h10-t14p10p7h10-t15p10p7h10-t15p10p7h10-t15p10p7h10-t15p10p7h10
|------------------------------------------------------------------------------------------------
|------------------------------------------------------------------------------------------------
|------------------------------------------------------------------------------------------------
|------------------------------------------------------------------------------------------------

|------------------------------------------------------------------
|-9h12p9h12p9h12p9h12p9\7h10p7h10p7h10p7-----10b-------------------
|-----------------------------------------9b-----9b----------------
|------------------------------------------------------------------
|------------------------------------------------------------------
|------------------------------------------------------------------

|-17-16-14-----14-16-17b17b-----14h17p14--14------------------------------------------------
|----------17b--------------------------17--17-14h15p14h15p14--------------------17b--------
|------------------------------------------------------------17p14h16p14-----16b-----16p14--
|-----------------------------------------------------------------------16p14---------------
|-------------------------------------------------------------------------------------------
|-------------------------------------------------------------------------------------------

|----------14h17p14h17p14h17p14/16h19p16/17h21p17h21p17h21p17h21p17h21p17\---
|-----14h17------------------------------------------------------------------
|14h16-----------------------------------------------------------------------
|----------------------------------------------------------------------------
|----------------------------------------------------------------------------
|----------------------------------------------------------------------------

|-\16h19p16h19p16h19p16\14h17p14h17p14h17p14-----17b-----
|--------------------------------------------17b-----17b-
|--------------------------------------------------------
|--------------------------------------------------------
|--------------------------------------------------------
|--------------------------------------------------------

                 |--------------------P.M.--------------------|
|-------------------------------------------------------------------------------------------
|-17p14-------------------------------------------------------------------------------------
|------16p14-----14----------14---------14----------14-----------14p13h14p13-16p14p13--16--
|-----------16------16-14-------16-14------16-14-------16-14-------------------------16----
|-------------------------16----------16---------16----------16-----------------------------
|-------------------------------------------------------------------------------------------

--------------------14-17p16p14-19p17-19p17-19b19b--
------------------17--------------------------------
----------14h16/18----------------------------------
-----14h16------------------------------------------
14h16-----------------------------------------------
----------------------------------------------------

Just Repeat The Other Riffs Now
There Is One More Fill But I Don't
Know It. If You Think You Know Then
Send It On Into Jason. He'll Know 
What To Do.

JASON'S EVERCLEAR TABS - http://members.tripod.com/~panec/