Don't Change
As recorded by Everclear on the Santa Monica Single
Tabbed by Jason P (jasonsevercleartabs@hotmail.com)

This song has a basic rhythm. It is played with 'dead' strings 
strummed twice, then the chord strummed twice, then 'dead' 
strings again etc.

e.g.
e|---X-X--3-3--X-X--3-3--X-X--| etc.
B|---X-X--3-3--X-X--3-3--X-X--|
G|---X-X--4-4--X-X--4-4--X-X--|
D|---X-X--5-5--X-X--5-5--X-X--|
A|---X-X--5-5--X-X--5-5--X-X--|
E|---X-X--3-3--X-X--3-3--X-X--|

G				 F#m
I'm standing here on the ground.
Em
The sky above won't fall down.
Am     C           G 	
See no evil in all directions.
G			F#m	
Resolution of happiness.
Em	
Things have been dark for too long.
Am 	     C
Don't change for you.
Am	       C      G
Don't change a thing for me.
Am 	     C
Don't change for you.
Am	       C      G
Don't change a thing for me.

G			  F#m
I found a love I had lost
Em
It was gone for too long 
Am      C             G
Hear no evil in all directions
G                       F#m  
Execution of bitterness
Em
Message received loud and clear 

Am 		 C
Don't change for you.
Am	       C      G
Don't change a thing for me.
Am 		 C
Don't change for you.
Am	       C      G
Don't change a thing for me.

(solo)
e|--------------------------------------------------------------------|
B|-8-8-8-8--8-8-8-8--8-10-8-10----3-3-3-3--3-3-3-3--3-5-3-5---0-0-0-0-|
G|--------------------------------------------------------------------|
D|--------------------------------------------------------------------|
A|--------------------------------------------------------------------|
E|--------------------------------------------------------------------|

e|----------------------------|x2
B|-0-0-0-0--0-1-3-1-0-1---0---|
G|----------------------2---0-|
D|----------------------------|
A|----------------------------|
E|----------------------------|

G				   F#m
I'm standing here on the ground.
Em
The sky above won't fall down.
Am	   C           G 	
See no evil in all directions.
G			F#m	
Resolution of happiness.
Em	
Things have been dark for too long.
Am 	         C
Don't change for you.
Am	       C         G
Don't change a thing for me.
Am 		 C
Don't change for you.
Am	       C      G
Don't change a thing for me.

(solo)x2                

JASON'S EVERCLEAR TABS - http://members.tripod.com/~panec/