Drunk Again
As recorded by Everclear on the "Nervous and Wierd" EP
Tabbed by Jason P (jasonsevercleartabs@hotmail.com)

Intro Bit 

e|--------7--7--6--6----------------------------------|
B|*-8--8--------------7--7--5--5--8--8--7--7---------*|
G|--------------------------------------------8--8----|
D|----------------------------------------------------|
A|*--------------------------------------------------*|
E|----------------------------------------------------|

Verse

Mostly just Bass, but here it the riff anyway,

e|--------------------|
B|*------------------*|
G|--------------------|
D|--------------------|
A|*-----2-1----------*|
E|-2-3------0-0-0-0-0-|

Chorus
(Bass plays root note of each chord)

e|------------------------------------|
B|*----------------------------------*|
G|-------------------2-2-4-5---5-5-4--|
D|--2-2-4-5---5-5-5--2-2-4-5---5-5-4--|
A|*-2-2-4-5---5-5-5--0-0-2-3---3-3-2-*|
E|--0-0-2-3---3-3-3-------------------|

Anyone wanna help with the lead?

                                                 

JASON'S EVERCLEAR TABS - http://members.tripod.com/~panec/