"Drunk Again" (Bass)
As Recorded by Everclear on the "Nervous & Weird" EP
Tabbed By Ashton Bailey (ashton_bailey@hotmail.com)
& Jason P (jasonsevercleartabs@hotmail.com)

Key:
pm = palm mute
\ = slide up towards the neck
/ = slide down towards the body
fb = feedback
h = hammer
b = bend string
r = ring (let string ring)
p = pull off

   Play with Heavy Distortion & A Pick

Intro - Guitar

Main Riff
G|-------------------|
D|-------------------|
A|--------------2-1--|
E|--0-0-0-0-2-3------|
       Em  F# G B Bb

Chorus
G|-----------------------------|
D|-----------------------------|
A|-----------------0-2-3-3--3--|
E|--0-2-3-3---3p-0-------------|

That should be everything.

JASON'S EVERCLEAR TABS - http://members.tripod.com/~panec/