"Everything To Everyone" (Bass)
As recorded by Everclear on "So Much for the Afterglow"
Tabbed by Ashton Bailey (ashton_bailey@hotmail.com) and Ryan McGrew (r_mcgrew@hotmail.com)

VERSION 1 - Tabbed by Ashton Bailey

Main Verse
G|-----------------------------------|
D|-----------------------------------|
A|------------8-8-8-----------5-5-5--|
E|--8-8-8-----------5-5-5------------|
      C         F#    A         D

Chorus
G|-------------------------------|
D|-------------------------------|
A|-------------------------------|
E|--1-1-1-1-1-1-1-3-3-3-3-3-3-3--|
          F             G    

Suggestion from Jason P (jasonsevercleartabs@hotmail.com)

Chorus
G|-----------------------------------|
D|-----------------------------------|
A|-----------------------------------|
E|--1-1-1-1-1-1-1-1-3-3-3-3-5-5-5-5--|
          F            G       A

VERSION 2 - Tabbed by Ryan McGrew 

verse
G|----------------------------------|
D|----------------------------------|
A|---------8-8-8----------5-5-5-----|           
E|--8-8-8----------5-5-5------------|           repeat as necessary

pre-chorus
G|----------------------------------|
D|----------------------------------|
A|--------8-8-8---------------------|   
E|-8-8-8----------5-5-5-3-3-3-3-----|      

chorus
G|----------------------------------|
D|----------------------------------|
A|----------------------------------|
E|-1-1-1-1-1-1-1-1-3-3-3-3-3-3-3-3--|

I suggest playing this with a pick and with your midrange and treble 
turned a little higher than usual.

Ryan McGrew

JASON'S EVERCLEAR TABS - http://members.tripod.com/~panec/