"El Distorto De Melodica" (Bass)
As recorded by Everclear on "So Much For The Afterglow"
Tabbed by Ashton Bailey (ashton_bailey@hotmail.com) and Jason P 
(jasonsevercleartabs@hotmail.com)

Intro (*****Guitar Only*****)

   Main Verse
G|-------------------------------|
D|-------------------------------| Repeat
A|------------1-1-----------1-1--|
E|--1-1-----------1-1------------|
     F         Bb  F         Bb

   Bridge
G|---------------| x4
D|---------------|
A|---------------|
E|-1-1--\13--13--|
    F      Fb

   Bass Solo
G|----------------------8-| x4
D|------3-3-3-1-3-1-3-----|
A|------------------------|
E|-1-1--------------------|
    F    E#   D# E# D# E#  Eb

   Chorus
G|-------------------|
D|-------------------|
A|-------------------|
E|--6-6-6-6-6-6-6-6--|
          Bb

   Outro
G|-----------------|
D|-----------------|
A|-----------------|
E|--1-1-//////6-6--|
     F         Bb

JASON'S EVERCLEAR TABS - http://members.tripod.com/~panec/