Evergleam
As recorded by Everclear on "World of Noise"
Tabbed by Kyle Pouliot (TurboniumK@aol.com) and Kevin Pish (Pisherman1@aol.com)

VERSION 1 - Tabbed by Kyle Pouliot

There are 2 guitars in this one

Intro

e|-1------4-4-4-|
b|-1------5-5-5-|
g|-2------6-6-6-|
D|-3-3-3--6-6-6-| Do this 3 times
A|-3-3-3--4-4-4-|
E|-1-1-1--------|

At the End of the third of above Guitar 2 do this:
e|-----------------|
b|-6-6-6-6-6-6-6-6-|
g|-----------------|
D|-----------------|
A|-----------------|
E|-----------------|

e|------------------------------------------|
b|------------------------------------------|
g|--------------------6-6-6-6-5-5-5-5-------|
D|-3-3-3-3--5-5-5-5-5-6-6-6-6-5-5-5-5-------| Play 4 times
A|-3-3-3-3--5-5-5-5-5-4-4-4-4-3-3-3-3-------|
E|-1-1-1-1--3-3-3-3-3-----------------------|
Evergleam and I know why God Is good and Jesus loves me
Heaven lives and I know where sounds to me a not so easy chair
Falling free and living down sringing out and over happy
Evergleam and I know why it isn't real, and Im not gonna break.

e|-------------------3-1-1--3-1--|
b|-------------------3-2-1--3-2--|
g|-3-3-3-3-----------4-3-2--4-3--|
D|-3-3-3-3--3-3-3-3--5-3-3--5-3--|
A|-1-1-1-1--3-3-3-3--5-1-3--5-1--|
E|----------1-1-1-1--3---1--3----|

While Above Guitar 2 does this:

e|-----------------------------------------------------------------------|
b|--3-3-3-1-3-3-3-1-3-3-3-1-3-3-3-1--------------------------------------|
g|-----------------------------------------------------------------------|
D|-----------------------------------------------------------------------|
A|------------------------------------5-5-5-5-7-7-7-7-8-8-8-8-7-7-7-7----|
E|-----------------------------------------------------------------------|

e|----------------------------------|
b|----------------------------------|
g|---------3-3-3-3------------------|
D|-5-5-5-5-3-3-3-3-3-3-3-3----------|
A|-5-5-5-5-1-1-1-1-3-3-3-3----------|
E|-3-3-3-3---------1-1-1-1----------|

Guitar 2 does this riff during above

e|---------------------|
b|-6-6-6-6-5-6-5-6-5~--|
g|---------------------|
D|---------------------|
A|---------------------|
E|---------------------|
Im not gonna break, dont die, dont give into it, no way, no way
No way please don't leave me!

e|-3----|
b|-3----|
g|-4--3-|
D|-5--3-|
A|-5--1-|
E|-3----|

e|------------------------------------------|
b|------------------------------------------|
g|--------------------6-6-6-6-5-5-5-5-------|
D|-3-3-3-3--5-5-5-5-5-6-6-6-6-5-5-5-5-------| Play 4 times
A|-3-3-3-3--5-5-5-5-5-4-4-4-4-3-3-3-3-------|
E|-1-1-1-1--3-3-3-3-3-----------------------|
Evergleam and I know how, pulling hair and breaking voices 
Spinning wheels will give you life
Spinning wheels will give you choices
Give away the spark inside
Take away the shining prize
Evergleam and I know how 
It isnt real, and Im not gonna break...

And Again:

e|-------------------3-1-1--3-1--|
b|-------------------3-2-1--3-2--|
g|-3-3-3-3-----------4-3-2--4-3--|
D|-3-3-3-3--3-3-3-3--5-3-3--5-3--|
A|-1-1-1-1--3-3-3-3--5-1-3--5-1--|
E|----------1-1-1-1--3---1--3----|

While Above Guitar 2 does this:

e|-----------------------------------------------------------------------|
b|--3-3-3-1-3-3-3-1-3-3-3-1-3-3-3-1--------------------------------------|
g|-----------------------------------------------------------------------|
D|-----------------------------------------------------------------------|
A|------------------------------------5-5-5-5-7-7-7-7-8-8-8-8-7-7-7-7----|
E|-----------------------------------------------------------------------|

e|--------------------------|
b|--------------------------|
g|-------3-3-3--------------|
D|-5-5-5-3-3-3-3-3-3--7-5---|
A|-5-5-5-1-1-1-3-3-3--5-3---|
E|-3-3-3-------1-1-1--------|
Im not gonna break. No way! Im not gonna Break. No way! Im not gonna break
No way! Im not gonna break, No way! No way! No way! Im not gonna break


After that Guitar 2 plays this
e|-------------------3-1-1--3-1--|
b|-------------------3-2-1--3-2--|
g|-3-3-3-3-----------4-3-2--4-3--|
D|-3-3-3-3--3-3-3-3--5-3-3--5-3--|
A|-1-1-1-1--3-3-3-3--5-1-3--5-1--|
E|----------1-1-1-1--3---1--3----|

While Above Guitar 2 does this riff:

e|-----------------------|
b|-----------------------|
g|-----------------------|
D|-----------------------|
A|------8--7-h8-5---5----|
E|-5-h7-----------7------|
Im not gonna break, Im not gonna break, Im not gonna break,

Then
e|-1------4-4-4-|
b|-1------5-5-5-|
g|-2------6-6-6-|
D|-3-3-3--6-6-6-| Do this 3 times
A|-3-3-3--4-4-4-|
E|-1-1-1--------|

While Guitar 2 does this
e|---------------------|
b|-5-5-5-5-5-5-5-5-5~--|
g|---------------------|
D|---------------------|
A|---------------------|
E|---------------------|
No Way! No Way! No Way!

e|------------------------------------------|
b|------------------------------------------|
g|--------------------6-6-6-6-5-5-5-5-------|
D|-3-3-3-3--5-5-5-5-5-6-6-6-6-5-5-5-5-------| Play 4 times
A|-3-3-3-3--5-5-5-5-5-4-4-4-4-3-3-3-3-------|
E|-1-1-1-1--3-3-3-3-3-----------------------|
Evergleam everywhere, 
Ever weird everyone
Evergleam everywhere, 
Evergleam
Oh
Im not going away
Im not going away
Im not going away
I wont see you there
Im not going away
Im not gonna break

And Again:
e|-------------------3-1-1--3-1--|
b|-------------------3-2-1--3-2--|
g|-3-3-3-3-----------4-3-2--4-3--|
D|-3-3-3-3--3-3-3-3--5-3-3--5-3--|
A|-1-1-1-1--3-3-3-3--5-1-3--5-1--|
E|----------1-1-1-1--3---1--3----|

e|--------------------------|
b|--------------------------|
g|-------3-3-3--------------|
D|-5-5-5-3-3-3-3-3-3--7-5---|
A|-5-5-5-1-1-1-3-3-3--5-3---|
E|-3-3-3-------1-1-1--------|
Im not gonna break. No way! Im not gonna Break. No way! Im not gonna break
No way! Im not gonna break, No way! No way! No way! 

While Above Guitar 2 does this:

e|-----------------------------------------------------------------------|
b|--3-3-3-1-3-3-3-1-3-3-3-1-3-3-3-1--------------------------------------|
g|-----------------------------------------------------------------------|
D|-----------------------------------------------------------------------|
A|------------------------------------5-5-5-5-7-7-7-7-8-8-8-8-7-7-7-7----|
E|-----------------------------------------------------------------------|

e|--------------------------|
b|--------------------------|
g|-------3-3-3--------------|
D|-5-5-5-3-3-3-3-3-3--7-5---|
A|-5-5-5-1-1-1-3-3-3--5-3---|
E|-3-3-3-------1-1-1--------|
No Way!
No Way!
No Way!
No Way!
No Way!
No Way!
No Way!
 
Then
e|-1------4-4-4-|
b|-1------5-5-5-|
g|-2------6-6-6-|
D|-3-3-3--6-6-6-| Do this 3 times
A|-3-3-3--4-4-4-|
E|-1-1-1--------|

Guitar 2 does this riff now: during above
e|-4--3--1------|
b|-x--x--x------|
g|-5--4--2------|
D|--------------|  Do this 4 times
A|--------------|
E|--------------|
This is not real im never gonna break

e|---------|
b|-6--6----|
g|-7--6----|
D|----6----|  
A|---------|
E|---------|
No Way!
No Way!
No Way!
No Way!

VERSION 2 - Tabbed by Kevin Pish

Verses
e|---------------------------------------|
B|---------------------------------------|
G|---------------------------------------|
D|--2--2--2--4--4--4---7--7--7--9--9--9--|
A|--2--2--2--4--4--4---7--7--7--9--9--9--|
E|--0--0--0--2--2--2---5--5--5--7--7--7--|
   Evergleam and I know how, God is good and Jesus loves me.


Chorus ("I'm not gonna' break!")
e|---------------------------------------------------------|
B|---------------------------------------------------------|
G|-2--2--2-------------------------------------------------|
D|-2--2--2--2--2--2----------------------------------------|
A|-0--0--0--2--2--2----4--4--4---6--6--6--4--4--4--2--2--2-|
E|----------0--0--0----------------------------------------|

Suggestion by Jason P (jasonsevercleartabs@hotmail.com)

For the verses, I'm getting E F# C B chords. I pretty sure Kyle's tab is 
mostly right, except for the fact it's all half a step too high. I would play
it as though it's all a half a step lower (ie play everything one fret down) or
tune down half a step and play it like it is written.

Suggestion by Hugh Yik (hyik@nb.sympatico.ca)

intro -> Em to C5. repeat
verse-> Em, G5, C5, B5. repeat
      then go to A for a bit 
      then there is a little fill.  
      then to Em again?  
      sorry thats all i can get 

Suggestion by Steve Smith (sesmith3@eos.ncsu.edu) 

Intro
Gm
/-\-/-\-/
Eb
/-\-/-\-/-\-/

This is all I know, if you have more, email me.

JASON'S EVERCLEAR TABS - http://members.tripod.com/~panec/