Evergleam (bass)
As recorded by Everclear on "World of Noise" LP 
Tabbed by Lauren Ciechanowski (trggrhppyjack@aol.com)

This isn't exactly the key they play in on the album, but then I don't think 
they really tuned their instruments back then...This goes with the key of the
Evergleam guitar tab on this site.

INTRO:
G|-----------------------------|(6x)
D|-------------------3-1-------| 
A|-----0-3-3/8~----------3-1-0-| 
E|-1-1-----------1-1-----------|

VERSE: Not quarter notes, but played to the rhythm of the song.
G|----------------------------------------| (4x)
D|----------------------------------------| 
A|---------------------4-4-4-4~--3-3-3-3~-| 
E|-1-1-1-1~--3-3-3-3~---------------------|
	F	    G		   C#       C

"Not going to break..."
G|---------------------------------| 
D|---------------------------------| 
A|-1-1-1-1-1-1-1-1-----------------| 
E|-----------------1-1-1-1-1-1-1-1-|
         Bb                F

"Don't die, don't give into it..."
G|------------------------------------------| 
D|------------------------------------------| 
A|---------1-1-1-1------------------1-1-1-1-| 
E|-3-3-3-3---------1-1-1-1--3-3-3-3---------|
           G	  Bb	    F        G	   Bb

VERSE: 
G|----------------------------------------| (4x)
D|----------------------------------------| 
A|---------------------4-4-4-4~--3-3-3-3~-| 
E|-1-1-1-1~--3-3-3-3~---------------------|
	F	    G		   C#       C

"Not going to break..."
G|-----------------| 
D|-----------------| 
A|-1-1-1-1---------| 
E|---------1-1-1-1-|
      Bb       F

"No way, I'm not gonna break"
G|------------------------------(2x)|-----------------|
D|----------------------------------|-----------------|
A|---------1-1-1-1---------5-5--3-3-|---------1-1-1-1-|
E|-3-3-3-3---------1-1-1-1----------|-3-3-3-3---------|
      G       Bb       F    D    C       G       Bb

MUSICAL INTERLUDE(?):
G|-----------------------------|(8x)
D|-------------------3-1-------| 
A|-----0-3-3/8~----------3-1-0-| 
E|-1-1-----------1-1-----------|
        
"Evergleam, everywhere, blah blah..."
G|------------------|(4x) 
D|------------------| 
A|-----------4--4-3-| 
E|-1--1-3--3--------|

"Not going to break..."
G|---------------------------------| 
D|---------------------------------| 
A|-1-1-1-1-1-1-1-1-----------------| 
E|-----------------1-1-1-1-1-1-1-1-|
      Bb       F

"No way, I'm not gonna break..."
G|------------------------------(3x)|-----------------|
D|----------------------------------|-----------------|
A|---------1-1-1-1---------5-5--3-3-|---------1-1-1-1-|
E|-3-3-3-3---------1-1-1-1----------|-3-3-3-3---------|
	G	  Bb	    F     D	   C       G       Bb
           
OUTRO:
G|-----------------------------|(4x)
D|-------------------3-1-------| 
A|-----0-3-3/8~----------3-1-0-| 
E|-1-1-----------1-1-----------|

JASON'S EVERCLEAR TABS - http://members.tripod.com/~panec/