"Father of Mine" (Bass Tab)
As recorded by Everclear on "So Much for the Afterglow"
Tabbed by Ashton Bailey (ashton_bailey@hotmail.com)

Intro (Guitar Only) Main Verse 2X

Main Verse
G|------------------------------------------|
D|------------------------------------------|
A|--4-4-4-4-4-4-----------8--8--8--8--8--8--|
E|------------------------------------------|
        Db                      F

G|----------------------------------------------|
D|----------------------------------------------|
A|--9--9--9--9--9--9---------------6-6-6-6-6-6--| 1 1/2 X
E|----------------------------------------------|
         Gb                             Eb

Repeat Above 1 and a half times then Pre Chorus

Pre-Chorus
G|------------------------------------------------|
D|------------------------------------------------|
A|--9--9--9--9--9--9--8--7-6-6-6-6-6-6-6-6-6-6-6--|
E|------------------------------------------------|
         Gb           F  E           Eb

Chorus
G|---------------------------------------------|
D|---------------------------------------------|
A|--4-4-4-4-4-4-4------------------------------| 3X
E|----------------4-4-2-2-1-1-1-1-1-1-2-2-4-4--|
         Db       Ab  Gb      F       Gb  Ab

Repeat The Chorus 3 Times

Main Verse
G|------------------------------------------|
D|------------------------------------------|
A|--4-4-4-4-4-4-----------8--8--8--8--8--8--|
E|------------------------------------------|
        Db                      F

G|----------------------------------------------|
D|----------------------------------------------|
A|--9--9--9--9--9--9---------------6-6-6-6-6-6--| 3 1/2X
E|----------------------------------------------|
         Gb                             Eb

Repeat Main Verse 3 and a half times then Pre Chorus

Pre-Chorus
G|------------------------------------------------|
D|------------------------------------------------|
A|--9--9--9--9--9--9--8--7-6-6-6-6-6-6-6-6-6-6-6--|
E|------------------------------------------------|
         Gb           F  E           Eb

Chorus
G|---------------------------------------------|
D|---------------------------------------------|
A|--4-4-4-4-4-4-4------------------------------| 3X
E|----------------4-4-2-2-1-1-1-1-1-1-2-2-4-4--|
         Db       Ab  Gb      F       Gb  Ab

Repeat The Chorus 3 Times

Guitar Solo
G|------------------------------------------|
D|------------------------------------------|
A|--4-4-4-4-4-4-----------8--8--8--8--8--8--|
E|------------------------------------------|
        Db                      F

G|------------------------------------------------|
D|------------------------------------------------|
A|--9--9--9--9--9--9--8--7-6-6-6-6-6-6-6-6-6-6-6--|
E|------------------------------------------------|
         Gb           F  E           Eb
Chorus
G|---------------------------------------------|
D|---------------------------------------------|
A|--4-4-4-4-4-4-4------------------------------| 4X
E|----------------4-4-2-2-1-1-1-1-1-1-2-2-4-4--|
         Db       Ab  Gb      F       Gb  Ab

Bridge
G|------------------------------------|
D|------------------------------------|
A|--4-4-4-4-4-4----------4-4-4-4-4-4--|
E|------------------------------------|
        Db                    Db

G|------------------------------------|
D|------------------------------------|
A|--4-4-4-4-4-4----------4-4-4-4-4-4--|
E|------------------------------------|
        Db                    Db

Main Verse 2
G|------------------------------------------|
D|------------------------------------------|
A|--4-4-4-4-4-4-----------8--8--8--8--8--8--|
E|------------------------------------------|
        Db                      F

G|----------------------------------------------|
D|----------------------------------------------|
A|--9--9--9--9--9--9---------------6-6-6-6-6-6--| 3 1/2X
E|----------------------------------------------|
         Gb                             Eb

Repeat Main Verse 3 and a half times then Pre Chorus

Pre-Chorus
G|------------------------------------------------|
D|------------------------------------------------|
A|--9--9--9--9--9--9--8--7-6-6-6-6-6-6-6-6-6-6-6--|
E|------------------------------------------------|
         Gb           F  E           Eb

Chorus
G|---------------------------------------------|
D|---------------------------------------------|
A|--4-4-4-4-4-4-4------------------------------| 6X
E|----------------4-4-2-2-1-1-1-1-1-1-2-2-4-4--|
         Db       Ab  Gb      F       Gb  Ab
Outro
G|------------------------------------|
D|------------------------------------|
A|--4-4-4-4-4-4----------4-4-4-4-4-4--|
E|------------------------------------|
        Db                    Db

G|------------------------------------|
D|------------------------------------|
A|--4-4-4-4-4-4----------4-4-4-4-4-4--|
E|------------------------------------|
        Db                    Db

JASON'S EVERCLEAR TABS - http://members.tripod.com/~panec/