For Pete's Sake
As recorded by Everclear on "White Trash Hell" EP
Tabbed by Joe (FleetadmJw1@cs.com)

Here Is As Much As I Know Of "For Pete's Sake"

Intro / Verse Riff
e|---------------------------------------------------------|
B|---------------------------------------------------------|
D|---------------------------------------------------------|
G|---------------------------------------------------------|
A|----2---2---2---4-/-6----------2---2---2---4-/-6-\-4-----|
E|----0---0---0---2-/-4----------0---0---0---2-/-4-\-2-----|

Also Play When Singing

Fill 1
e|-------------------------------------|
B|-------------------------------------|
G|-------------------------------------|
D|----2---2---2---2---2---2---2---2----|
A|----2---2---2---2---2---2---2---2----|
E|----0---0---0---0---0---0---0---0----|

Play Verse Riff Again

Fill 2
e|-------------------------------------|
B|-------------------------------------|
G|-------------------------------------|
D|----4---4---4---4---4---4---4---4----|
A|----4---4---4---4---4---4---4---4----|
E|----2---2---2---2---2---2---2---2----|

Play Verse Riff Again

Then Play This Little Ditty:
e|----0---0---2---2---4---4---5---5----|
B|----0---0---2---2---4---4---5---5----|
G|-------------------------------------|
D|-------------------------------------|
A|-------------------------------------|
E|-------------------------------------|
I'm Unsure About The Part Above

Then This
e|----0---0---0---0---0---0---0---0----0----0----0----0----0----0----0----0-|
B|----5---5---5---5---5---5---5---5---10---10---10---10---10---10---10---10-|
G|--------------------------------------------------------------------------|
D|--------------------------------------------------------------------------|
A|--------------------------------------------------------------------------|
E|--------------------------------------------------------------------------|

If There Is Anything I Left Out, Its Because I Don't Know It. Sorry.

JASON'S EVERCLEAR TABS - http://members.tripod.com/~panec/