The Good Witch of the North
As recorded by Everclear on "SFAAM #2: Good Time for A Bad Attitude"
Tabbed by Ken Hansen (khansen@fordham.edu)

Verse

e|------------------------------------------------------------------|
B|------------------------------------------------------------------|
G|------3-----------------10------------------5---------------------|
D|--------4----4-------------11----11-----------6---6------6-----8--|
A|---4------4----------11-------11---------6------6-----------------|
E|-2----------------9--------------------4--------------4-----6-----|


Chorus

e|---------------------------------------------------------------|
B|---------------------------------------------------------------|
G|---------------------------------------------------------------|
D|-6------8---11-----6----4------5----6------8----4------5----6--|
A|-6------8---11-----6----4------5----6------8----4------5----6--|
E|-4------6----9-----4----2------3----4------6----2------3----4--|


Bridge

e|----------------------------------------------------|
B|----------------------------------------------------|
G|----------------------------------------------------|
D|-4------3----2------4----6------8---11-----6----4---|
A|-4------3----2------4----6------8---11-----6----4---|
E|-2------1----0------2----4------6----9-----4----2---|


For the end just pick this chord

e|---2---|
B|---2---|
G|---3---|
D|---4---|
A|---4---|
E|---2---|

Ken Hansen

Suggestion from Hugh Yik (hyik@nb.sympatico.ca)

Verse
    F#           E(???)       G#
e|------2-------------0-------------4----------------|
B|--------2---2---------0-------------4-------4------|
G|----3-----3-------1-----1-------5-----5------------|
D|--4-------------2-----------6-----------6---/8r\---|
A|---------------------------------------------------|
E|---------------------------------------------------|

Suggestion from Patrick McFadden (JackSexy11@aol.com)

Verse 
    F#              C#               A#
e|----------------------------------------------------------|
B|----------------------------------------------------------|
G|-------11------------------------------13--------13-------|
D|----8----11-8-11-------11----------10-----13--------------|
A|--9-----------------8-----11-8--11------------11----/13r\-|
E|------------------9---------------------------------------|

Suggestion by Bryan Wogen (bobman12@earthlink.net)

tune to Eb
this is just the verses, i havent figured out the chorus yet. but i think that
this is also repeated through the chorus and the background and bass changes. 

Eb-----8-------3-------10---------------------------------------------------
Bb---0--0----0--0----0---0---0--0-------------------------------------------
Gb-5-----5-0-----0/7------77--9-------repeat--------------------------------
Db--------------------------------------------------------------------------
Ab--------------------------------------------------------------------------
Eb--------------------------------------------------------------------------

good luck, hope it works

JASON'S EVERCLEAR TABS - http://members.tripod.com/~panec/