Halloween Americana (bass)
As recorded by Everclear on "SFAAM #2: Good time for a Bad Attitude"
Tabbed by Joel Aponte (craigfan112@everclearfanatic.com or aponteja@prtc.net) 
and Ashton Bailey (ashton_bailey@hotmail.com) 

VERSION 1 - Tabbed by Ashton Bailey

Key:
pm = palm mute
\ = slide up towards the neck
/ = slide down towards the body
fb = feedback
h = hammer
b = bend string
r = ring (let string ring)

Note-Play with a heavy pick

Intro

(W/Heavy Distortion)
G|-----------------|
D|-----------------| Repeat 3 times
A|--4-4-4-6-6-6-6--|
E|-----------------|
     Db     Eb

Main Verse

(W/Heavy Distortion)
G|-----------------------------------------------------|
D|-----------------------------------------------------| Repeat as needed
A|--6-6-6-6-------2-2-2-2-------1-1-1-1----------------|
E|----------4-4-4---------2-2-2---------2-2-2-4-4-4-4--|
       Eb     Ab     B      F#     Bb     F#     Ab

Chorus

(W/Heavy Distortion)
G|-------------------|
D|-------------------|
A|--6-6-6-6-X-4-4-4--| Repeat as Needed
E|-------------------|
       Eb       Db

Bridge

(W/Heavy Distortion)
G|--------------------------------------------|
D|--------------------------------------------|
A|--6rrr---------6rrr---------6---6---6--6-6--|
E|--------------------------------------------|
     Eb            Eb             Eb

Solo- same as main verse

Outro

(Clean maybe W/Chorus)
G|-------------------------------------------------------------|
D|-------------------------------------------------------------|
A|--6-----6---------2-----2---------1-----1-----------------6--|
E|----------4-----4---------2-----2---------2-----2-4-----4----|
      Eb       Ab      B      F#      Bb       F#      Ab   Eb

VERSION 2 - Tabbed by Joel Aponte

			      3x     
G|------------------------|
D|*----------------------*|
A|*--4--4--4--4h6--6--6--*|
E|------------------------|

         Main Riff                                                              
G|--------------------------------------------------------------------------
D|*-------------------------------------------------------------------------
A|*--4--4--4h6--6--6--------------------------------------------------------
E|--------------------5--5--5--5h7--7--7-----3--3--3h6--6--6-----3--3-------
                                                                                

                   4x                          4x                          
G|------------------|---|------------------------|--------|----------------
D|-----------------*|---|*----------------------*|--------|----------------
A|-----------------*|---|*--4--4--4--4h6--6--6--*|--------|----------------
E|---3--3h4--4--4---|---|------------------------|--------|----------------
                                                                                

       Let Ring          Rythmicaly                                             
G|---------------------------------------|-----|-------------------------------
D|---------------------------------------|-----|-------------------------------
A|---6-----------------6--6--6--6--6--6--|-----|-------------------------------
E|---------------------------------------|-----|-------------------------------
                                                                                

                                            4x                 
G|---------------------------|-----|------------------------|-----------------
D|---------------------------|-----|*----------------------*|-----------------
A|----Main Riff 6 times------|-----|*--4--4--4--4h6--6--6--*|-----------------
E|---------------------------|-----|------------------------|-----------------
                                                                                

          The rest of the song is just Guitars                                  
G|----------------------------------------------------------------------------|
D|----------------------------------------------------------------------------|
A|----------------------------------------------------------------------------|
E|----------------------------------------------------------------------------|
        

JASON'S EVERCLEAR TABS - http://members.tripod.com/~panec/