Happy Hour 
As recorded by Everclear for "Heartspark Dollarsign" single
Tabbed by Hugh Yik (hyik@nb.sympatico.nb.ca) and Jason P (jasonsevercleartabs@hotmail.com)

INTRO RIFF 
   A5   C#5       E5        D5
e|-----------------------------------|
B|-----------------------------------|
G|-----------------------------------|
D|-7-7--6--6--6---9--9--9---7--7--7--|
A|-7-7--4--4--4---7--7--7---5--5--5--|
E|-5-5-------------------------------|

(Intro riff x4)

(Intro riff x8)
Hey, makes me wonder,
Why I just let them slip away,
I'd trade my family and my friends,
For an endless happy hour

F#5     
I know, 

(Intro Riff x8)
Sometimes I talk too much
Hey, have a drink with me,
And I will tell you what I think,
Yeah I know I look like I am just some drunk to you,

    F#5                 E5
e|-------------------------------------------|
B|-------------------------------------------|
G|----------3--------------------1-----------|
D|------4-----4---4-----------2--------------|
A|----4---4-----4----------2-----------------|
E|--2-------------------0--------------------|
 But I know who I was,  And I know who I am 

MAIN RIFF
   A5   C#5       E5        D5
e|-----------------------------------|
B|-----------------------------------|
G|------6--6--6---9--9--9---7--7--7--|
D|-7-7--6--6--6---9--9--9---7--7--7--|
A|-7-7--4--4--4---7--7--7---5--5--5--|
E|-5-5-------------------------------|

(Main Riff x10)
Hey, Hey,
Hey makes me wonder,
How I just do it every time
Yeah, pushin', pullin',
Until they just slip and fade away 

   F#5               E5               D5      C#5 
e|------------------------------------------------------|
B|------------------------------------------------------|
G|---------3-----------------1--------/7-7-7-7-6-x-6-x--|
D|-----4-----4---4-------2-----2---2--/7-7-7-7-6-x-6-x--|
A|---4---4-----4-------2---2-----2----/5-5-5-5-4-x-4-x--|
E|-2-----------------0----------------------------------|
   I still know      I still know     I Still Know Who I Am!
         who I am,     who I am,     

   A5
e|------------------------------------------------------------|
B|------------------------------------------------------------|
G|------------------------------------------------------------|
D|-7-7----------7-7------------7-7---------7-7----------------|
A|-7-7----------7-7------------7-7---------7-7----------------|
E|-5-5----------5-5------------5-5---------5-5----------------|
            "Uh....       Ha Ha       Uuuuu Ooooo!"   


  BACKGROUND RIFF through next verse
    A5    C#5   E5    D5
e|--5--7--5-----5-----5-----|
B|o----------7-----7-----7-o|
G|--------------------------|
D|--------------------------|
A|o------------------------o|
E|--------------------------|

(Main Riff x10)
Hey, Hey, Hey, 
Hey, have a drink with me, 
And I will tell you when I'm done,
Yeah, trade my family and my friends
For an endless happy hour 

   F#5               E5               D5      C#5 
e|------------------------------------------------------|
B|------------------------------------------------------|
G|------------------------------------/7-7-7-7-6-x-6-x--|
D|-4-4-4-4-4-4-4-4---2-2-2-2-2-2-2-2--/7-7-7-7-6-x-6-x--|
A|-4-4-4-4-4-4-4-4---2-2-2-2-2-2-2-2--/5-5-5-5-4-x-4-x--|
E|-2-2-2-2-2-2-2-2---0-0-0-0-0-0-0-0--------------------|
   I still know      I still know     I Still Know Who I Am!
         who I am,     who I am,     

   A5 A5               A5 A5               A5 A5
e|---------------------------0-0-0-0--2-0---------------------------------|
B|--------2-2-2-2--3-2-------2-2-2-2--3-2--------2-2-3-2-2-/10-10-10-10---|
G|------------------------------------------------------------------------|
D|------------------------------------------------------------------------|
A|------------------------------------------------------------------------|
E|------------------------------------------------------------------------|

   A5  C#5   E5  D5  A5  C#5  E5  D5
e|-----------------------------------|
B|-10-10-10-10---12b-10-10-10-10-----|
G|-----------------------------------|
D|-----------------------------------|
A|-----------------------------------|
E|-----------------------------------|

   A5    C#5 E5  D5  A5  C#5  E5  D5
e|-------------------------------------|
B|-10-10-8-8-7-7-5-5-3-3-2h3p2h3p2h3p2-|
G|-------------------------------------|
D|-------------------------------------|
A|-------------------------------------|
E|-------------------------------------|
    A5  C#5 E5  D5       A5
e|--5-7-5---5---5-----|-----------|
B|o-------7---7---7--o|-----------|
G|--------------------|-----------|
D|--------------------|--7-7------|
A|o--------------(x4)o|--7-7------|
E|--------------------|--5-5------|

JASON'S EVERCLEAR TABS - http://members.tripod.com/~panec/