"Happy Hour" (Bass)
As Recorded by Everclear on the "Heartspark Dollarsign" Single
Tabbed By Ashton Bailey (ashton_bailey@hotmail.com) and 
Lauren Ciechanowski (trggrhppyjack@aol.com) 

VERSION 1 - Tabbed by Ashton Bailey

Key:
pm = palm mute
\ = slide up towards the neck
/ = slide down towards the body
fb = feedback
h = hammer
b = bend string
r = ring (let string ring)
p = pull off

   Intro
G|-------------------------|
D|-------------------------|
A|------4-4-4-7-7-7-5-5-5--| Repeat 8 times
E|--5-5--------------------| Then Pre Chorus
     A   Db     E     D

   Pre Chorus
G|-------|
D|-------|
A|-------|
E|--2-2--|
    F#

G|-------------------------|
D|-------------------------|
A|------4-4-4-7-7-7-5-5-5--| Repeat 8 times
E|--5-5--------------------| Then Pre Chorus 2
     A   Db     E     D

   Pre Chorus 2
G|-------------------------------|
D|-------------------------------|
A|-------------------------------|
E|--2-2-2-2-2-2-2-2-0-0-0-0-0-0--|
           F#            Em

   Main Verse
G|-------------------------|
D|-------------------------|
A|------4-4-4-7-7-7-5-5-5--| Repeat 10 times
E|--5-5--------------------| Then Chorus
     A   Db     E     D

   Chorus
G|---------------------------------------------------|
D|---------------------------------------------------|
A|----------------------------------5-5-5-5-4-X-4-X--|
E|--2-2-2-2-2-2-2-2-0-0-0-0-0-0-0-0------------------|
           F#            Em            D    Db  Db

   Bridge
G|------------------------------------------------------|
D|------------------------------------------------------|
A|------------------------------------------------------|
E|--5-5----------5-5----------5-5----------5-5----------|
     A            A            A            A

   Main Verse
G|-------------------------|
D|-------------------------|
A|------4-4-4-7-7-7-5-5-5--| Repeat 10 times
E|--5-5--------------------| Then Chorus
     A   Db     E     D

   Chorus
G|---------------------------------------------------|
D|---------------------------------------------------|
A|----------------------------------5-5-5-5-4-X-4-X--|
E|--2-2-2-2-2-2-2-2-0-0-0-0-0-0-0-0------------------|
           F#            Em            D    Db  Db

   Bridge
G|------------------------------------------------------|
D|------------------------------------------------------|
A|------------------------------------------------------|
E|--5-5----------5-5----------5-5----------5-5----------|
     A            A            A            A

   Outro
G|-------------------------|
D|-------------------------|
A|------4-4-4-7-7-7-5-5-5--| Repeat 4 times
E|--5-5--------------------| Then end on A
     A   Db     E     D

VERSION 2 - Tabbed by Lauren Ciechanowski

INTRO:
G|------------------------|(4x) 
D|------------------------| 
A|-------------2-2-2-0-0-0| 
E|-0-0-0-4-4-4------------|

VERSE 1:
 Hey, makes me wonder
 Why, I just let them slip away
 I'd trade my family and my friends
 For an endless happy hour 
G|------------------------|(8x) 
D|------------------------| 
A|-------------2-2-2-0-0-0| 
E|-0-0-0-4-4-4------------|

 I know
 Sometimes I talk too much
G|----------------|----------------------|
D|----------------|----------------------|
A|-2-2-2-2-2-2-2-2|-----------2-2-2-0-0-0|
E|----------------|-0-0-0-4-4-4----------|

VERSE 2:
 Hey, have a drink with me
 And I will tell you what I think
 Yeah I know I look like I am just some drunk to you
G|------------------------|(8x) 
D|------------------------| 
A|-------------2-2-2-0-0-0| 
E|-0-0-0-4-4-4------------|

 But I know who I was
 And I know who I am
G|--------------------------------| 
D|--------------------------------| 
A|-2-2-2-2-2-2-2-2----------------| 
E|-----------------0-0-0-0-0-0-0-0|

G|------------------------|(4x) 
D|------------------------| 
A|-------------2-2-2-0-0-0| 
E|-0-0-0-4-4-4------------|

VERSE 3:
 Hey, makes me wonder
 How I just do it every time
 Yeah, pushing, pulling
 Until they just slip and fade away
G|------------------------|(8x)
D|------------------------| 
A|-------------2-2-2-0-0-0| 
E|-0-0-0-4-4-4------------|

 I still know who I am...
G|----------------------------------------------| 
D|---------------------------------0-0-0-0-0----| 
A|-2-2-2-2-2-2-2-2---------------------------4-0| 
E|-----------------0-0-0-0-0-0-0-0--------------|


BREAK:
G|-------------------------------------|--------------------(4x)|
D|-------------------------------------|------------------------| 
A|-0-0----0-0----0-0----0-0-0-0-0-0-0-0|-------------2-2-2-0-0-0|  
E|-------------------------------------|-0-0-0-4-4-4------------|

VERSE:
 Hey, have a drink with me
 And I will tell you when I'm done
 Yeah, trade my family and my friends
 For an endless happy hour
G|------------------------|(8x) 
D|------------------------| 
A|-------------2-2-2-0-0-0| 
E|-0-0-0-4-4-4------------|

I still know who I am...
G|----------------------------------------------| 
D|---------------------------------0-0-0-0-0----| 
A|-2-2-2-2-2-2-2-2---------------------------4-0| 
E|-----------------0-0-0-0-0-0-0-0--------------|

OUTRO:
G|-------------------------------------|--------------------(8x)|
D|-------------------------------------|------------------------| 
A|-0-0----0-0----0-0----0-0-0-0-0-0-0-0|-------------2-2-2-0-0-0|  
E|-------------------------------------|-0-0-0-4-4-4------------|

JASON'S EVERCLEAR TABS - http://members.tripod.com/~panec/