Hateful (Bass) 
As recorded by Everclear on "MOM - Music for Our Mother Ocean" 
Tabbed by Ashton Bailey (ashton_bailey@hotmail.com)

Key: 
pm = palm mute 
\ = slide up towards the headstock 
/ = slide down towards the body 
fb = feedback 
h = hammer 
b = bend string 
r = release string 
rr = ring (let string ring) 
v = strum down 
^ = strum up 
~ = Hold Note 

Intro (Distorted) 
G|---------------------------------------| 
D|---------------------------------------| 
A|---------------------------------------| 
E|--3-3-2-3-3-2-3-3-2-3-3-2-3-3-2-3-3-2--| 

Main Verse 
G|-------------------------------------| 
D|-------------------------------------| 
A|-------------------2-2-2-2--3-3-3-3--| 
E|--3-3-3-3--2-2-2-2-------------------| 
      G       F#       Bb       C 

Pre Chorus 
G|---------------------------------------------------| 
D|---------------------------------------------------| 
A|--2--3----------------------2--3--0--3-------------| 
E|--------3-2/3--2/3-3-3-3-3--------------3-3-3-3-3--| 

Bridge Continued 
G|-----------------------------------------------| 
D|-----------------------------------------------| 
A|-----------------------------------------------| 
E|--2/3-3-3-3--2/3-3-3-3-3--2/3-3--2/3-3--2/3-3--| 
   F#   G     F#     G     F# G   F# G   F# G 

Chorus 
G|------------------------------| 
D|------------------------------| 
A|---------5-5-5--0-0-0--3-3-3--| 
E|--3-3-3-----------------------| 
     G      D      A      C 

Outro 
G|----------------------------------------| 
D|----------------------------------------| 
A|----------------------------------------| 
E|--1-1-1-1-1-1-1-1-1-1-1-2-2-2-2-3~~~~~--| 
            F               Gb   G 

JASON'S EVERCLEAR TABS - http://members.tripod.com/~panec/