Heartspark Dollarsign
As recorded by Everclear from "Sparkle and Fade"
Tabbed by Jason P (jasonsevercleartabs@hotmail.com) with Dan Hill, Pete Donnell (rockdog@talk21.com) 
	and Steve Smith (sesmith3@eos.ncsu.edu)

VERSION 1 - Fixed by Jason P (jasonsevercleartabs@hotmail.com)
From a tab by Dan Hill (dhill@reed.edu) 

(Intro) 
   A     G        D    A        G        D      A        G        D
e|-------------3--2----------------------3------5-5-5-5--3-3-3------------|
B|----5--------3--3---------5---------3----2----5-5-5-5--3-3-3------0-----|
G|-----------0----2---------0---------0------3--0-0-0-0--0-0-0----2---2-0-|
D|---------0------------------------0-----------0-0-0-0--0-0-0------------|
A|-----------------------4--------2-------------4-4-4-4--2-2-2------------|
E|-5-----3-------------5--------3---------------5-5-5-5--3-3-3------------|

(Main Riff)						(Fill 1)
   G       D        G       D
e|-3----------------0---------------| e|-10-10-8-8-7-7--------|
B|-3---------0------1---------0-----| B|---------------10-10--|
G|-0-------2---2-0--0-------2---2-0-| G|----------------------|
D|-0----------------2---------------| D|----------------------|
A|-2----------------3---------------| A|----------------------|
E|-3----------------0---------------| E|----------------------|

(Intro x1)
(Main Riff) x2

(Only bass playing  G D C D in this verse until after fill 1 is played)
Time stops when the whispers blare
The voices drop hard, but the eyes still stare
				  (fill 1)            (guitar returns)	
The world resolves into a death's head grin
Am			  C
Because I walk with pride with a black girlfriend 

(Main riff) x1

(Play a muted version of the main riff throughout this chorus)
My mom said not to bring her around
'Cause she's black my family would put her down
I'll break the white-trash ties that bind
Am			         C 
Trade a love so pure for a hate so blind 

(Main Riff) x1

Am        Em
She said, she said
C          G         D       G 
Forget the fact that I don't look like you
Am	    Em
She said, she said
C		            D
You're possessed with a power bigger than the pain 

(Main riff played over solo)
e|--12-10---7-10-7-10--7/---------7-10-7--10-7-10----|
B|---------------------------8-10-----------------7b-|
G|---------------------------------------------------|
D|---------------------------------------------------|
A|---------------------------------------------------|
E|---------------------------------------------------|

e|------7-10-7--10-7-10-------------------------6-6-6-6-6-6-6-6-|
B|-8-10-----------------7b---7-8-8-8-8-8-8-8-8--8-8-8-8-8-8-8-8-|
G|-----------------------------9-9-9-9-9-9-9-9------------------|
D|--------------------------------------------------------------|
A|--------------------------------------------------------------|
E|--------------------------------------------------------------|

e|-7-7-7-7-7-7-7-7--6-6-6-6-6-6-6-6-|
B|-8-8-8-8-8-8-8-8--8-8-8-8-8-8-8-8-|
G|----------------------------------|
D|----------------------------------|
A|----------------------------------|
E|----------------------------------|

e|-7-7-10-10-7-7-10-10-7-7-10-10-----------------3----------------------|
B|-8-8-8--8--8-8-8--8--8-8-8--8-----------0------3--0--3--------0--3----|
G|--------------------------------------2---2-0--0--------2-----------2-|
D|-----------------------------------------------0----------------------|
A|-----------------------------------------------2----------------------|
E|-----------------------------------------------3----------------------|

e|-------------------5-5-5-5--3-3-3-|
B|-------------------5-5-5-5--3-3-3-|
G|-------------------0-0-0-0--0-0-0-|
D|-------------------0-0-0-0--0-0-0-|
A|-------------------4-4-4-4--2-2-2-|
E|--5-5-5-5--3-3-3---5-5-5-5--3-3-3-| (end of Solo)

(Fill 2)        (Fill 3) 
e|------------| e|------7-10-7--10-7-10----|
B|-----0------| B|-8-10-----------------7b-|
G|--2----2--0-| G|-------------------------|
D|------------| D|-------------------------|
A|------------| A|-------------------------|
E|------------| E|-------------------------|

(Fill 2)          (Fill 2)        (Fill 2)    
	Time stops          when we lie so close
      (Fill 2)                (Fill 2)
In my room where we share what no one knows
         (Fill 2)                  (Fill 2)
From the day that we start til the day that we end
Am              C 
I know I know I know now
Am                   C                       D   (main riff)
We will never find a place where we can just fit in 

Me and my black girlfriend 

Am        Em
She said, she said
C        G                        D          G    
Fend for yourself, you're alone
Am        Em  
She said, she said
C                        D
You are possessed with a power
(main riff)
Bigger than the pain 

A power bigger than the pain
					(fill 3 over main riff)
A power bigger than the pain 
(fill 3 over main riff)
Heartspark Dollarsign

VERSION 2 - Tabbed by Pete Donnell

This version tabbed by Pete Donnell (rockdog@talk21.com)
I put it together from two or three other incomplete tabs and
filled in the gaps. I'm 99% sure it's accurate... Unfortunately,
you'll have to work out the rhythms yourself, it's not hard!
Takes far too long to write out every strum though ;o)
Chords written above the lyrics - chords are also written above
Riff 1, so it's easy to see which words you should be singing to
which bit of the riff. Enjoy!

Intro:

|-----0-------------2-----------------0-------------2----------|
|-------------3-----3-------------------------3-------3--------|
|-------0-----0-----0-------------------0-----0---------0------|
|---0---------0---------------------0---------0----------------|
|--------------------------------------------------------------|
|-3---------3---------------------3---------3------------------|

|-----0-------------2------------------------------------------|
|-------------3-----3------------------------------------------|
|-------0-----0-----0----------------------------------2-4-2-0-|
|---0---------0----------------------------------------0-0-0-0-|
|--------------------------------------------------------------|
|-3---------3------------------(3)-(3)-(3)-(3)-(3)-(3)---------|

		Notes in brackets played on bass


Riff 1:

  G	 D	 C	D	G      D       C      D

|-3--------------0--------------3--------------0---------------|
|-3--------------1--------------3--------------1---------------|
|-0------2-4-2-0-0------2-4-2-0-0------2-4-2-0-0------2-4-2-0--|
|-0------0-0-0-0-2------0-0-0-0-0------0-0-0-0-2------0-0-0-0--|
|-2--------------3--------------2--------------3---------------|
|-3-----------------------------3------------------------------|

V1 (bass only until chord marked *):

G	D	C	     D	      G
   Time stops       when the whispers blare

	   D	C	     D		G
the voices drop hard but the eyes still stare

	    D	   C	    D		 A* (guitar comes in)
the world resolves   into a death's head grin

		    C			   (Riff 1)
because i walk with pride with a black girlfriend


V2 (Muted guitar plays Riff 1 until chord A):

G     D	    C		 D	   G
   My mom    says not to bring her round

	      D		C	     D	     G
because she's black, my family would put her down

     D	   C		    D	      A
i'll break  the white trash ties that bind

		C		   (Riff 1)
trade a love so pure for a hate so blind


Chorus 1:

Am	Em	Am	Em
    She said,	    she said,

C	    G	      D	      G
'Forget the fact that i don't look like you.'

Am	Em	Am	Em
    She said,	    she said,

C			 D		       (Riff 1)
'You're possessed with a power bigger than the pain.'


Solo (Riff 1 as backing):

|--------------------------------------------------------------|
|--17-15-----------12-15-12-15-12--------x\--------------------|
|--^-------------------------------------x\--------------------|
|-pre-bend-----------------------------------------------------|
|--------------------------------------------------------------|
|--------------------------------------------------------------|


|---------12-15------------------------------------------------|
|---12-15-------12--------------15----15-----------------------|
|----------------------------------12----11--------------------|
|--------------------------------------------------------------|
|--------------------------------------------------------------|
|--------------------------------------------------------------|


|---------12-15------------------------------------------------|
|---12-15-------12--------------15----15-----------------------|
|----------------------------------12----11--------------------|
|--------------------------------------------------------------|
|--------------------------------------------------------------|
|--------------------------------------------------------------|


|-------------------------------------------------|
|-12-12-12-12-12-12-12-12-11-11-11-11-11-11-11-11-|
|-12-12-12-12-12-12-12-12-12-12-12-12-12-12-12-12-|
|-------------------------------------------------|
|-------------------------------------------------|
|-------------------------------------------------|


|-------------------------------------------------|
|-12-12-12-12-12-12-12-12-11-11-11-11-11-11-11-11-|
|-12-12-12-12-12-12-12-12-12-12-12-12-12-12-12-12-|
|-------------------------------------------------|
|-------------------------------------------------|
|-------------------------------------------------|


|---------------------------------------------|
|-12-12-12-12-11-11-11-11-12-12-12-12---------|
|-12-12-12-12-12-12-12-12-12-12-12-12-2-4-2-0-|
|-------------------------------------0-0-0-0-|
|---------------------------------------------|
|---------------------------------------------|


|--------------------------------------------------------------|
|--------------------------------------------------------------|
|-----4-/-7----2-/-4-----------4-/-7----2-/-4------------------|
|--------------------------------------------------------------|
|--------------------------------------------------------------|
|--------------------------------------------------------------|


|-----0--------------------------------------------------------|
|-------------3------------------------------------------------|
|-------0-----0----------------------------------------2-4-2-0-|
|---0---------0----------------------------------------0-0-0-0-|
|--------------------------------------------------------------|
|-3---------3---(3)-(3)-(3)-(3)-(3)-(3)-(3)-(3)-(3)-(3)--------|


V3 (Riff 1, muted guitar again):

G	D	C	  D	 G
   Time stops     when we lie so close

      D		    C	       D      G
in my room where we share what no-one knows

	 D	     C		  D	      A
from the day that we start to the day that we end

	  C
i know, i know, i know now

A			C			      (Riff 1)
   we will never find a place where we could just fit in

C	     D		G	D
   me and my black girlfriend

C	D
Waaaah!!

Chorus 2:

Am	Em	Am	Em
    She said,	    she said,

C	      G		    D		G
'Fend for yourself, you're alone.'

Am	Em	Am	Em
    She said,	    she said,

C			 D		       (Riff 1)
'You're possessed with a power bigger than the pain.'

D     C		D		G	D
  Oh,   a power bigger than the pain

C	  D		  G$
  A power bigger than the pain

C	   D		G$	D
Heartspark Dollarsign

C	   D	   G
Heartspark Dollarsign.

(At $ symbols, lead guitar plays this fill (it's from the solo)):

|----------12-15-----------------------------------------------|
|----12-15-------12---------15----15---------------------------|
|------------------------------12----11------------------------|
|--------------------------------------------------------------|
|--------------------------------------------------------------|
|--------------------------------------------------------------|

VERSION 3 - Tabbed by Steve Smith

Intro
e|-----------------------
b|---------5-----------3-
g|--------------0------0-
d|------0--------------0-
a|-----------------------
e|-5---------------3-----

e|-----------------------------2-
b|---------5------------3------3-
g|--------------0-------0------0-
d|------0---------------0--------
a|-------------------------------
e|-5----------------3------------

e|-------------------------------2-----------
b|---------5------------3-----------3--------
g|--------------0-------0---------------0----
d|------0---------------0--------------------
a|-------------------------------------------
e|-5----------------3------------------------

main riff
e|--------------------------------------------------------
b|--------------------------------------------------------
g|-2-4-2-0-------------------2-4-2-0-----------0----------
d|----------------0------------------------------0--------
a|----------------0------------------------------3--------
e|----------------3---------------------------------------

fill#1 over lyrics "into a death's head grin"
e|---10/8-8-7-7-5-5--------------------------------
b|-----------------------8-------------------------
g|-------------------------------------------------
d|-------------------------------------------------
a|-------------------------------------------------
e|-------------------------------------------------

chorus
Am________Em
she said she said
C_________G______D__________G
Forget the fact that I dont look like you
Am_______Em
__she said she said
___C____________________D
You're possessed with a power bigger than the pain

solo
e|------------------------------------------------------
b|-----15b----15----12----15-----12-----15-------12-----
g|------------------------------------------------------
d|------------------------------------------------------
a|------------------------------------------------------
e|------------------------------------------------------

e|----------------------12--15----------------------------------
b|-0/17\0--12--15-----------12----------15------15--------------
g|---------------------------------------------------12------11-
d|--------------------------------------------------------------
a|--------------------------------------------------------------
e|--------------------------------------------------------------

(repeat that) then
e|-------------------------------------------
b|----12-12-12-12-12-12-12-12----------------
g|----12-12-12-12-12-12-12-12----------------
d|-------------------------------------------
a|-------------------------------------------
e|-------------------------------------------

(guitar2 with main riff)
G5______Dsus_________C
from the day that we start
______D5
til the day that we end
Am________C_____________Am
I know I know I know yeah 
_________________C_______________D_____G
We will never find a place where we can just fit in

comments? suggestions? praise?
sesmith3@eos.ncsu.edu  

Suggestion from "The Verges" (bverge1@maine.rr.com)

Im pretty sure the intro to the Sparkle and fade version of Heartspark
Dollarsign goes like this:

    Asus   G5              Asus  G5                  Asus  G5
e|--------------------2----------------------2----------------------------
B|-------5------3-----3---------5------3-------3---------5------3---------
G|---------0----0-----0-----------0----0---------0---------0----0---------
D|-----0--------0-------------0--------0---------------0------------------
A|------------------------------------------------------------------------
E|---5--------3-------------5--------3---------------5--------3-----------

    D5      G     Dsus    Csus2  Dsus     G       Dsus    Csus2   Dsus
e|-------------------------------------------------------------------------
B|--------0-0--0-x------0-------xx------0-0-0-0-xx-------------------------
G|--2-4-2-0-0--0-x2-4-2-0-------xx2-4-2-0-0-0-0-xx2-4-2-0-5-5-5-xx2-4-2-0--
D|--0-0-0-0-0--0-x0-0-0-0-5-5-5-xx0-0-0-0-0-0-0-xx0-0-0-0-5-5-5-xx0-0-0----
A|----------x--x----------3-3-5-----------x-x-x-----------3-3-3-xx---------
E|----------3--3--------------------------3-3-3----------------------------

Suggestion by Wendy Barbour (wbarbour@netcom.ca)

s=slide
^=bend
~~~=vibrato
MAin riff
e|----------------------------------------------------------------------|
B|------3--3----------------0-----------------x-x-------------0---------|
G|------0--0----2--4--2---0-----------------x-x--2-4--2---0-------------|
D|--------------0--0--0---0----5--5--5---x-x--0--0--0--0----------------|
A|-----------------------------3--3--3----------------------------------|
E|------3--3------------------------------------------------------------|

solo
      ~~~~~
e|---------------------------------------------------------------------------12---15-|
b|--15^-----------12--15--12--15--12-----x---x---x-x---12--15------------------------|
g|-----------------------------------------------------------------------------------|

e|---------------------------------------------------------------12--15------------
b|--12----15--------15----------------------------12--15------------12------
g|---------------12--------11----11^----11^------------------------------------

e-------------------------------------------------------------------------------------
b---15-------15-----------------------12-12-12-12-12-12-12---------------
g--------12-------11--x--x--12--0-12-12-12-12-12-12-12-12-----------

e-----------------------------------------------------------------------------------
b--11-11-11-11-11-11-11--------12-12-12-12-12-12-12------------
g--12-12-12-12-12-12-12-12---12-12-12-12-12-12-12--12--------

e-------------------------------------------------------------------------------------
b--11-11-11-11-11-11-11----------12-13-15-15--12-13-15-15-12---
g--12-12-12-12-12-12-12-12-----12-12-12-12--12-12-12-12-12---

e-----------------------------------------------------------------------------
b--13-15-15-12-13--x---s4---4s7--7s2--s4----------------------
g--12-12-12-12-12--x-------------------------------------------------

This all i can do right now the rest is you have is mostly right
except in the intro: its not a d chord its 
e---2------------2------------------
b---3----and-------3-------------
g---0--------------------0----------

JASON'S EVERCLEAR TABS - http://members.tripod.com/~panec/