Here We Go Again" (Bass)
As recorded by Everclear on "Songs From An American Movie Volume One,
Learning How To Smile"
Tabbed by Ashton Bailey (ashton_bailey@hotmail.com) & Jason P (jasonsevercleartabs@hotmail.com)

Key:
pm = palm mute
\ = slide up towards the neck
/ = slide down towards the body
fb = feedback
h = hammer
b = bend string
r = ring (let string ring)

   Main Verse
G|--------------------------------------------|
D|--------------------------------------------|
A|--3--3-------3--3-------3--3-------3--3--4--| Repeat
E|--------------------------------------------|
     C          C          C          C    Db

   Main Riff Variation
G|-----------------------------------------------|
D|-----------------------------------------------|
A|--3--3-------3--3-------3--3-------3---2---0---|
E|-----------------------------------------------|
     C          C          C         C   B   A

   Main Riff Variation Continued
G|-------------------|
D|-------------------|
A|-------------------| Repeat, them back to the regular main verse
E|--5---3---1--------|
    A   G   F

   Chorus "Then watching dirty movies in that happy room..."
G|--------------------------------------|
D|--------------------------------------|
A|--------------------------------------|
E|--1-1-1-1-1-1-1-1--3-3-3-3-3-3-3-3-3--|
           F                 G

   "Sittin' on my mattress in the corner, eating chinese food"
G|--------------------------------------|
D|--------------------------------------|
A|--3-3-3-3-3-3-2-2--0-0-0-0-0-0-0-0-0--|
E|--------------------------------------|
        C        B            A

   "I hear that voice in my head say here we go again"
G|-------------------------------------|
D|-------------------------------------|
A|-------------------------------------|
E|-1-1-1-1-1-1-1-1--3-3-3-3-3-3-3-3-3--|
          F                 G

G|--------------------------------------------|
D|--------------------------------------------|
A|--3--3-------3--3-------3--3-------3--3--4--|
E|--------------------------------------------|
     C          C          C          C    Db

Then back to the Main verse, and repeat the whole thing again.
That should be everything.

Suggestion by Hugh Yik (hyik@nb.sympatico.ca)

-Chorus Riff- "Then watching dirty movies in that happy room..."
G|---------------------------------->
D|---------------------------------->
A|---------------------------------->
E|-1-1-1-1-1-1-1-1--3-3-3-3-3-3-3-3->

G|----------------------------------|
D|----------------------------------|
A|-3-3-3-3-3-3-2-2-0-0-2-2-0-0------|
E|-----------------------------3-3--|

JASON'S EVERCLEAR TABS - http://members.tripod.com/~panec/