Heroin Girl (bass)
As recorded by Everclear on the Sparkle and Fade LP
Tabbed by Will Donovan" (everclear792@msn.com) 
    
the bass just follows the guitar (or the guitar follows the bass) through the whole song
 
Verse/chorus:
------------------------------------------------- 
-------------------------------------------------
---------5-5-----4-4-----5-5--------------------
-3-3-2-2-----5-5-----2-2-----5-5----------------
  back ............        Yes back in time    

Bridge:
--------------------------------------------------------- 
---------------------------------------------------------
-----------------------------------5-5-------------------
---2-2-0-0-2-2---2-2-0-0-2-2---5-5-----5-5---7-7-6-6-5-5-
    I heard a policeman say just another overdose (now just go back to the first thing)

JASON'S EVERCLEAR TABS - http://members.tripod.com/~panec/