How Soon is Now?
As recorded by Everclear on "Jabberjaw #6: Pure Sweet Hell"
Tabbed by Jason P (jasonsevercleartabs@hotmail.com)

NOTE: The Fills are played straight over the top of the Rhythm guitar's riffs. You'll know
what part of the riff to play the fill in, if you've heard the song. The same goes with 
the solos in the bridge they are played over the rhythm guitar, but there is no rhythm 
guitar in the outro.
	The E chord is an open E chord
	The E(2) chord is an 7th fret A-shaped barre chord

(Intro)
    B	
e|----------|
B|----------|
G|--4----4--|
D|--4----4--|
A|--2--2----|
E|----------|

(Riff 1)                           (Riff 2)
    E F#      E F#     F# E F#         A        B
e|-----------------------------|   e|--------------------|
B|-----------------------------|   B|--------------------|
G|-----------------------------|   G|--2-2-2-2--4-4-4-x--|  
D|--2-4--x-x--2-4--x-x--4-2-4--|   D|--2-2-2-2--4-4-4-x--|
A|--2-4--x-x--2-4--x-x--4-2-4--|   A|--0-0-0-0--2-2-2-x--|
E|--0-2--x-x--0-2--x-x--2-0-2--|   E|--------------------|

(Fill 1)     (Fill 2)
e|--2/0-0--| |--0---|
B|---------| |------|
G|---------| |------|
D|---------| |------|
A|---------| |------|
E|---------| |------|

(Intro)x1
(Riff 1)x3 (with fill 1 played over it the last time)
(Riff 2)x1
(Riff 1)x4 (with fill 1 played over it the last time)
(Riff 2)x1

(Riff 1)x3
I am the son. I am the heir
                                       (Fill 2) (Riff 2)
Of a shyness that is criminally vulgar
         (Riff 1)x3
I am the son and heir
                            (Fill 1) (Riff 2)  
Of nothing in particular

C#    D                A              E(2)      C# 
         You shut your mouth, how can you say
  E(2)                F#    
I go about things the wrong way ?
     A                C#    E(2)
I am human and I need to be loved
C#             E(2)      F#
Just like everybody else does

(Riff 1)x4 (with fill 1 played over it the last time)
(Riff 2)x1

(Riff 1)x3
I am the son. I am the heir
                                       (Fill 2) (Riff 2)
Of a shyness that is criminally vulgar
         (Riff 1)x3
Yeah, I'm son and heir
                            (Fill 1) (Riff 2)  
Of nothing in particular

C#    D                A              E(2)      C# 
         You shut your mouth, how can you say
  E(2)                F#    
I go about things the wrong way ?
     A                C#    E(2)
I am human and I need to be loved
      C#             E(2)      F# (stop playing)
Yeah, Just like everybody else does

(Bass plays Root notes of Riff 1 twice, then the guitar comes in with:)

e|--5-5-5----5-5-5-5--7-7-7-7-9-9-9-9--9/-| (I'm not sure about this.)
B|--x-x-x----x-x-x-x--x-x-x-x-x-x-x-x-----|
G|--2-2-2-2--2-2-2-2--4-4-4-4-6-6-6-6-----|
D|----------------------------------------|
A|----------------------------------------|
E|----------------------------------------|

(Riff 1)x4 (With Solo 1 played over it)

(Solo 1)
e|-------------------------------------------------| x2
B|-10-10-10-10-10-12-12-12-----10-10-10-10-9-9-9-9-|
G|-------------------------------------------------|
D|-------------------------------------------------|
A|-------------------------------------------------|
E|-------------------------------------------------|
   
(Fill 1) (Riff 2)

(Riff 1)x1
(Riff 1)x3 then (Riff 2)x1 (With Solo 2 played over it)

(Solo 2)   
e|--------------------------------------------------|
B|-10-10-10-10-10-12-12-12------10-10-10-14-10-9-9b-|
G|--------------------------------------------------|
D|--------------------------------------------------|
A|--------------------------------------------------|
E|--------------------------------------------------|

e|--------------------------------------------------|
B|-10-10-10-10-10-12-12-12---14-14-14-14-14-12-10---|
G|--------------------------------------------------|
D|--------------------------------------------------|
A|--------------------------------------------------|
E|--------------------------------------------------|

C#  D           A             E(2)        C#
      There's a club if you'd like to go
          E(2)                     F# 
You could meet somebody who really loves you, yeah yeah
       B                               C#   
So you go, and you stand on your own
A                               E(2)      
   And you leave on your own
        C#               B
And you go home, and you cry
                (Solo 3)x1
And you want to die

(Solo 3)
e|--------------------------------------------------| 
B|-10-10-10-10-10-12-12-12-----10-10-10-10h12-9-9-9-|
G|--------------------------------------------------|
D|--------------------------------------------------|
A|--------------------------------------------------|
E|--------------------------------------------------|


Yeah, you want to die
				(Solo 1)x1
Yeah, you want to die               
Yeah, you want to die

(Solo 3) x1

(Solo 4) x1

(Solo 4)
e|------------------------------------------------------------| 
B|-10-10-10-10-10-12-12-12-----10-10-10-10h12-9-9-8p7----5----|
G|------------------------------------------------------------|
D|------------------------------------------------------------|
A|------------------------------------------------------------|
E|------------------------------------------------------------|

(And the bass ends the song with this:)
G|---------------------|
D|---------------------|
A|--0-0-0-0---2-2-2-2--|
E|---------------------|

JASON'S EVERCLEAR TABS - http://members.tripod.com/~panec/