"How To Win Friends And Influence People" Guitar & Bass tab
Recorded By Everclear on "Slow Motion Daydream"
Tabbed by  JR (soggypeaches@yahoo.com), Hugh Yik (MMHSTEAM@hotmail.com) and Ashton Bailey (dingleberry666@hotmail.com)

!!NOTE!! - The bass tab for this song is in Ashton's tab, which is the third one listed here - Jason

VERSION 1 - Tabbed by JR

e----------------------
b----------------------
g---------------------- Play This 4 Times
d-11-11-11--11-11-11-11
a----------------------
e-9--9--9---9--9--9--9-



e-------------------------7--9
b-----------------------------
g-10-10-10--10-10-10-10-------
d-11-11-11--11-11-11-11-------  Play This 7 Times
a-11-11-11--11-11-11-11-------
e-9--9--9---9--9--9--9--------



e----------------------------------7--9-------------------------7--9
b-------------------------------------------------------------------
g-7~----8~----------------------------------------------------------
d-8~----9~--11-11-11--11-11-11-11--------11-11-11--11-11-11-11------ Play This 
a-8~----9~----------------------------------------------------------  4 Times
e-6~----7~--9--9--9---9--9--9--9---------9--9--9---9--9--9--9-------



e-------------------------7--9
b-----------------------------
g-10-10-10--10-10-10-10-------
d-11-11-11--11-11-11-11------- Play This 4 Times
a-----------------------------
e-9--9--9---9--9--9--9--------




e-------------------------7--9
b-----------------------------
g-10-10-10--10-10-10-10------- Play This 4 Times
d-11-11-11--11-11-11-11-------
a-11-11-11--11-11-11-11-------
e-9--9--9---9--9--9--9--------


e----------------------------------7--9-------------------------7--9
b-------------------------------------------------------------------
g-7~----8~----------------------------------------------------------
d-8~----9~--11-11-11--11-11-11-11--------11-11-11--11-11-11-11------ Play This 
a-8~----9~----------------------------------------------------------  4 Times
e-6~----7~--9--9--9---9--9--9--9---------9--9--9---9--9--9--9-------

e-------------------------7--9
b-----------------------------
g-10-10-10--10-10-10-10-------
d-11-11-11--11-11-11-11------- Play This 4 Times
a-----------------------------
e-9--9--9---9--9--9--9--------

e-------------------------7--9
b-----------------------------
g-10-10-10--10-10-10-10------- Play This 4 Times
d-11-11-11--11-11-11-11-------
a-11-11-11--11-11-11-11-------
e-9--9--9---9--9--9--9--------


e--------------------------------------
b--------------------------------------
g-10-10-10-10-10-8-8-8-8-8-8-7-7-7-6-6- Play This 4 Times
d-11-11-11-11-11-9-9-9-9-9-9-8-8-8-7-7-
a-11-11-11-11-11-9-9-9-9-9-9-8-8-8-7-7-
e-9--9--9--9--9--7-7-7-7-7-7-6-6-6-5-5-

e--------------------------------------
b--------------------------------------
g-10-10-10-10-10-8-8-8-8-8-8-7-7-7-6-6- Play This 4 Times
d-11-11-11-11-11-9-9-9-9-9-9-8-8-8-7-7-
a--------------------------------------
e-9--9--9--9--9--7-7-7-7-7-7-6-6-6-5-5-

e--------------------------------------
b--------------------------------------
g-10-10-10-10-10-8-8-8-8-8-8-7-7-7-6-6- Play This 4 Times
d-11-11-11-11-11-9-9-9-9-9-9-8-8-8-7-7-
a-11-11-11-11-11-9-9-9-9-9-9-8-8-8-7-7-
e-9--9--9--9--9--7-7-7-7-7-7-6-6-6-5-5-

e-------------------------7--9
b-----------------------------
g-10-10-10--10-10-10-10------- Play This 4 Times
d-11-11-11--11-11-11-11-------
a-11-11-11--11-11-11-11-------
e-9--9--9---9--9--9--9--------

Thats About All It Does     

VERSION 2 - Tabbed by Hugh Yik

How to Win Friends and Influence People by Everclear
recorded at live show.
tabbed by Hugh Yik (thanks Ashton for Octave note)

-Intro-
    Db8
e|--------------------------------|
B|--------------------------------|
G|--6-6-6-6-6-6------6-6-6-6-6-6--|
D|--x-x-x-x-x-x------x-x-x-x-x-x--|
A|--4-4-4-4-4-4------4-4-4-4-4-4--|
E|--------------------------------|

    Db8
e|--------------------------------|
B|--------------------------------|
G|--6-6-6-6-6-6------6-6-6-6-6-6--|
D|--x-x-x-x-x-x------x-x-x-x-x-x--|
A|--4-4-4-4-4-4------4-4-4-4-4-4--|
E|--------------------------------|
|                                |
e|--------------------------------|
B|--6-6-6-6-6-6------6-6-6-6-6-6--|
G|--6-6-6-6-6-6------6-6-6-6-6-6--|
D|--x-x-x-x-x-x------x-x-x-x-x-x--|
A|--4-4-4-4-4-4------4-4-4-4-4-4--|
E|--------------------------------|


-VERSE 1/MAIN RIFF-(Other guitar does power chords during Octaves in soem 
parts of song)
    Db8
e|--------------7-9--------------7-9--|
B|------------------------------------|
G|--6-6-6-6-6-6------6-6-6-6-6-6------|
D|--x-x-x-x-x-x------x-x-x-x-x-x------|
A|--4-4-4-4-4-4------4-4-4-4-4-4------|
E|------------------------------------|

-OTHER VERSEs-
    Bb              B
e|-----------------------------------|
B|-----------------------------------|
G|-----------------------------------|
D|--8-8-8-8-8-8-8-8-8-8-8-8-8-8-8-8--|
A|--8-8-8-8-8-8-8-8-9-9-9-9-9-9-9-9--|
E|--6-6-6-6-6-6-6-6-7-7-7-7-7-7-7-7--|
|Pm................................ |
|                                   |
e|-----------------------------------|
B|-----------------------------------|
G|-----------------------------------|
D|--8~--------------9~---------------|
A|--8~--------------9~---------------|
E|--6~--------------7~---------------|

    Db8
e|----------------7-9---|(X2)
B|----------------------|
G|--6-6-6-6-6-6---------|
D|--x-x-x-x-x-x---------|
A|--4-4-4-4-4-4---------|
E|----------------------|


-SECOND PART OF SONG-
    Db      A       Ab      Gb
e|-----------------------------------|
B|-----------------------------------|
G|--6-6-6-6--------------------------|
D|--6-6-6-6-7-7-7-7-6-6-6-6-4-4-4-4--|
A|--4-4-4-4-7-7-7-7-6-6-6-6-4-4-4-4--|
E|----------5-5-5-5-4-4-4-4-2-2-2-2--|

-OUTRO-

Is just main octave riff.

VERSION 3 - Tabbed by Ashton Bailey

Key:
pm = palm mute
\ = slide up towards the neck
/ = slide down towards the body
V = Downstroke
^ = Upstroke
fb = feedback
h = hammer
b = bend string
r = ring (let string ring)
H = Harmonics
~ = hold note

First off I wanted to say that I went to Portland and Seattle and saw the
guys do this song for the first time (well first 2 times). And this was how they
played it.

   Intro

  Guitar 1 (Art)
    V  V  V  V  V  ^  V  V        V  V  V  V  V  ^  V  V
e|---------------------------------------------------------|
B|---------------------------------------------------------|
G|---------------------------------------------------------|
D|--11-11-11-11-11-11-11-11--X-X--11-11-11-11-11-11-11-11--|
A|--X--X--X--X--X--X--X--X---X-X--X--X--X--X--X--X--X--X---|
E|--9--9--9--9--9--9--9--9---X-X--9--9--9--9--9--9--9--9---|
    (------------------Db Octive Chord-------------------)

  Guitar 1 (Art)
    V  V  V  V  V  ^  V  V        V  V  V  V  V  ^  V  V
e|---------------------------------------------------------|
B|---------------------------------------------------------|
G|---------------------------------------------------------|
D|--11-11-11-11-11-11-11-11--X-X--11-11-11-11-11-11-11-11--|
A|--X--X--X--X--X--X--X--X---X-X--X--X--X--X--X--X--X--X---|
E|--9--9--9--9--9--9--9--9---X-X--9--9--9--9--9--9--9--9---|
    (------------------Db Octive Chord-------------------)

  Guitar 2 (Lead)
    V V V V V ^ V V       V V V V V ^ V V
e|-----------------------------------------|
B|-----------------------------------------|
G|--6-6-6-6-6-6-6-6--X-X--6-6-6-6-6-6-6-6--|
D|--X-X-X-X-X-X-X-X--X-X--X-X-X-X-X-X-X-X--|
A|--4-4-4-4-4-4-4-4--X-X--4-4-4-4-4-4-4-4--|
E|-----------------------------------------|
    (-----------Db Octive Chord----------)

                                  It's a beautiful day !
  Guitar 1 (Art)
    V  V  V  V  V  ^  V  V        V  V  V  V  V  ^  V  V
e|---------------------------------------------------------|
B|---------------------------------------------------------|
G|---------------------------------------------------------|
D|--11-11-11-11-11-11-11-11--X-X--11-11-11-11-11-11-11-11--|
A|--X--X--X--X--X--X--X--X---X-X--X--X--X--X--X--X--X--X---|
E|--9--9--9--9--9--9--9--9---X-X--9--9--9--9--9--9--9--9---|
    (------------------Db Octive Chord-------------------)

  Guitar 2 (Lead)
    V V V V V ^ V V       V V V V V ^ V V
e|-------------------8-10------------------8-10--|
B|-----------------------------------------------|
G|--6-6-6-6-6-6-6-6-------6-6-6-6-6-6-6-6--------|
D|--X-X-X-X-X-X-X-X-------X-X-X-X-X-X-X-X--------|
A|--4-4-4-4-4-4-4-4-------4-4-4-4-4-4-4-4--------|
E|-----------------------------------------------|
          Db                     Db

   Bass
G|---------------------------------------|
D|---------------------------------------|
A|---------------------------------------|
E|--9-9-9-9-9-9-9-9-----9-9-9-9-9-9-9-9--|
           Db                  Db
                    yeah                    when you look up in the air

  Guitar 1 (Art)
    V  V  V  V  V  ^  V  V        V  V  V  V  V  ^  V  V
e|---------------------------------------------------------|
B|---------------------------------------------------------|
G|---------------------------------------------------------|
D|--11-11-11-11-11-11-11-11--X-X--11-11-11-11-11-11-11-11--|
A|--X--X--X--X--X--X--X--X---X-X--X--X--X--X--X--X--X--X---|
E|--9--9--9--9--9--9--9--9---X-X--9--9--9--9--9--9--9--9---|
    (------------------Db Octive Chord-------------------)

  Guitar 2 (Lead)
    V V V V V ^ V V       V V V V V ^ V V
e|-------------------8-10------------------8-10--|
B|-----------------------------------------------|
G|--6-6-6-6-6-6-6-6-------6-6-6-6-6-6-6-6--------|
D|--X-X-X-X-X-X-X-X-------X-X-X-X-X-X-X-X--------|
A|--4-4-4-4-4-4-4-4-------4-4-4-4-4-4-4-4--------|
E|-----------------------------------------------|
          Db                     Db

   Bass
G|---------------------------------------|
D|---------------------------------------|
A|---------------------------------------|
E|--9-9-9-9-9-9-9-9-----9-9-9-9-9-9-9-9--|
           Db                  Db
                        just to see the sky            it's a beautiful day
!

  Guitar 1 (Art)
    V  V  V  V  V  ^  V  V        V  V  V  V  V  ^  V  V
e|---------------------------------------------------------|
B|---------------------------------------------------------|
G|---------------------------------------------------------|
D|--11-11-11-11-11-11-11-11--X-X--11-11-11-11-11-11-11-11--|
A|--X--X--X--X--X--X--X--X---X-X--X--X--X--X--X--X--X--X---|
E|--9--9--9--9--9--9--9--9---X-X--9--9--9--9--9--9--9--9---|
    (------------------Db Octive Chord-------------------)

  Guitar 2 (Lead)
    V V V V V ^ V V       V V V V V ^ V V
e|-------------------8-10------------------8-10--|
B|-----------------------------------------------|
G|--6-6-6-6-6-6-6-6-------6-6-6-6-6-6-6-6--------|
D|--X-X-X-X-X-X-X-X-------X-X-X-X-X-X-X-X--------|
A|--4-4-4-4-4-4-4-4-------4-4-4-4-4-4-4-4--------|
E|-----------------------------------------------|
          Db                     Db

   Bass
G|---------------------------------------|
D|---------------------------------------|
A|---------------------------------------|
E|--9-9-9-9-9-9-9-9-----9-9-9-9-9-9-9-9--|
           Db                  Db
                     yeah                    just don't stare at the sun

  Guitar 1 (Art)
    V  V  V  V  V  ^  V  V        V  V  V  V  V  ^  V  V
e|---------------------------------------------------------|
B|---------------------------------------------------------|
G|---------------------------------------------------------|
D|--11-11-11-11-11-11-11-11--X-X--11-11-11-11-11-11-11-11--|
A|--X--X--X--X--X--X--X--X---X-X--X--X--X--X--X--X--X--X---|
E|--9--9--9--9--9--9--9--9---X-X--9--9--9--9--9--9--9--9---|
    (------------------Db Octive Chord-------------------)

  Guitar 2 (Lead)
    V V V V V ^ V V       V V V V V ^ V V
e|-------------------8-10------------------|
B|-----------------------------------------|
G|--6-6-6-6-6-6-6-6-------6-6-6-6-6-6-6-6--|
D|--X-X-X-X-X-X-X-X-------X-X-X-X-X-X-X-X--|
A|--4-4-4-4-4-4-4-4-------4-4-4-4-4-4-4-4--|
E|-----------------------------------------|
          Db                     Db

   Bass
G|---------------------------------------|
D|---------------------------------------|
A|---------------------------------------|
E|--9-9-9-9-9-9-9-9-----9-9-9-9-9-9-9-9--|
           Db                  Db
                   you would burn your eyes

  Main Verse 1

   Guitar 1 (Art) V  V  V  V  V  ^  V  V      V  V  V  V  V  ^  V  V
e|---------------------------------------------------------------------|
B|---------------------------------------------------------------------|
G|---------------------------------------------------------------------|
D|--11~----10~----11-11-11-11-11-11-11-11-----11-11-11-11-11-11-11-11--|
A|--11~----10~----X--X--X--X--X--X--X--X------X--X--X--X--X--X--X--X---|
E|--9~~----8~~----9--9--9--9--9--9--9--9------9--9--9--9--9--9--9--9---|
    Db     C                Db                          Db

   Guitar 2 (Lead)

e|------------------------------------------------------8-10-------------------8-10--|
B|-----------------------------------------------------------------------------------|
G|--6-6-6-6-6-6-6-6-5-5-5-5-5-5-5-5-5--6-6-6-6-6-6-6-6--------6-6-6-6-6-6-6-6--------|
D|--6-6-6-6-6-6-6-6-5-5-5-5-5-5-5-5-5--X-X-X-X-X-X-X-X--------X-X-X-X-X-X-X-X--------|
A|--4-4-4-4-4-4-4-4-3-3-3-3-3-3-3-3-3--4-4-4-4-4-4-4-4--------4-4-4-4-4-4-4-4--------|
E|-----------------------------------------------------------------------------------|
    (------------Palm Mute----------)
           Db              C                 Db                      Db

   Bass
G|-------------------------------------------------------------------------|
D|-------------------------------------------------------------------------|
A|-------------------------------------------------------------------------|
E|--9-9-9-9-9-9-9-9-8-8-8-8-8-8-8-8--9-9-9-9-9-9-9-9------9-9-9-9-9-9-9-9--|
           Db              C               Db                    Db
            Do not believe in the lucky numbers

   Guitar 1 (Art) V  V  V  V  V  ^  V  V      V  V  V  V  V  ^  V  V
e|---------------------------------------------------------------------|
B|---------------------------------------------------------------------|
G|---------------------------------------------------------------------|
D|--11~----10~----11-11-11-11-11-11-11-11-----11-11-11-11-11-11-11-11--|
A|--11~----10~----X--X--X--X--X--X--X--X------X--X--X--X--X--X--X--X---|
E|--9~~----8~~----9--9--9--9--9--9--9--9------9--9--9--9--9--9--9--9---|
    Db     C                Db                          Db

   Guitar 2 (Lead)

e|------------------------------------------------------8-10-------------------8-10--|
B|-----------------------------------------------------------------------------------|
G|--6-6-6-6-6-6-6-6-5-5-5-5-5-5-5-5-5--6-6-6-6-6-6-6-6--------6-6-6-6-6-6-6-6--------|
D|--6-6-6-6-6-6-6-6-5-5-5-5-5-5-5-5-5--X-X-X-X-X-X-X-X--------X-X-X-X-X-X-X-X--------|
A|--4-4-4-4-4-4-4-4-3-3-3-3-3-3-3-3-3--4-4-4-4-4-4-4-4--------4-4-4-4-4-4-4-4--------|
E|-----------------------------------------------------------------------------------|
    (------------Palm Mute----------)
           Db              C                 Db                      Db

   Bass
G|-------------------------------------------------------------------------|
D|-------------------------------------------------------------------------|
A|-------------------------------------------------------------------------|
E|--9-9-9-9-9-9-9-9-8-8-8-8-8-8-8-8--9-9-9-9-9-9-9-9------9-9-9-9-9-9-9-9--|
           Db              C               Db                    Db
          Do not believe in the ???                              Yeah to
tell you the truth

   Guitar 1 (Art) V  V  V  V  V  ^  V  V      V  V  V  V  V  ^  V  V
e|---------------------------------------------------------------------|
B|---------------------------------------------------------------------|
G|---------------------------------------------------------------------|
D|--11~----10~----11-11-11-11-11-11-11-11-----11-11-11-11-11-11-11-11--|
A|--11~----10~----X--X--X--X--X--X--X--X------X--X--X--X--X--X--X--X---|
E|--9~~----8~~----9--9--9--9--9--9--9--9------9--9--9--9--9--9--9--9---|
    Db     C                Db                          Db

   Guitar 2 (Lead)

e|------------------------------------------------------8-10-------------------8-10--|
B|-----------------------------------------------------------------------------------|
G|--6-6-6-6-6-6-6-6-5-5-5-5-5-5-5-5-5--6-6-6-6-6-6-6-6--------6-6-6-6-6-6-6-6--------|
D|--6-6-6-6-6-6-6-6-5-5-5-5-5-5-5-5-5--X-X-X-X-X-X-X-X--------X-X-X-X-X-X-X-X--------|
A|--4-4-4-4-4-4-4-4-3-3-3-3-3-3-3-3-3--4-4-4-4-4-4-4-4--------4-4-4-4-4-4-4-4--------|
E|-----------------------------------------------------------------------------------|
    (------------Palm Mute----------)
           Db              C                 Db                      Db

   Bass
G|-------------------------------------------------------------------------|
D|-------------------------------------------------------------------------|
A|-------------------------------------------------------------------------|
E|--9-9-9-9-9-9-9-9-8-8-8-8-8-8-8-8--9-9-9-9-9-9-9-9------9-9-9-9-9-9-9-9--|
           Db              C               Db                    Db
                                       ??? by the sounds of all your bad
dreams

   Guitar 1 (Art) V  V  V  V  V  ^  V  V      V  V  V  V  V  ^  V  V
e|---------------------------------------------------------------------|
B|---------------------------------------------------------------------|
G|---------------------------------------------------------------------|
D|--11~----10~----11-11-11-11-11-11-11-11-----11-11-11-11-11-11-11-11--|
A|--11~----10~----X--X--X--X--X--X--X--X------X--X--X--X--X--X--X--X---|
E|--9~~----8~~----9--9--9--9--9--9--9--9------9--9--9--9--9--9--9--9---|
    Db     C                Db                          Db

   Guitar 2 (Lead)

e|------------------------------------------------------8-10-------------------8-10--|
B|-----------------------------------------------------------------------------------|
G|--6-6-6-6-6-6-6-6-5-5-5-5-5-5-5-5-5--6-6-6-6-6-6-6-6--------6-6-6-6-6-6-6-6--------|
D|--6-6-6-6-6-6-6-6-5-5-5-5-5-5-5-5-5--X-X-X-X-X-X-X-X--------X-X-X-X-X-X-X-X--------|
A|--4-4-4-4-4-4-4-4-3-3-3-3-3-3-3-3-3--4-4-4-4-4-4-4-4--------4-4-4-4-4-4-4-4--------|
E|-----------------------------------------------------------------------------------|
    (------------Palm Mute----------)
           Db              C                 Db                      Db

   Bass
G|-------------------------------------------------------------------------|
D|-------------------------------------------------------------------------|
A|-------------------------------------------------------------------------|
E|--9-9-9-9-9-9-9-9-8-8-8-8-8-8-8-8--9-9-9-9-9-9-9-9------9-9-9-9-9-9-9-9--|
           Db              C               Db                    Db
     You know all of its true    People love to tell you that will break
your heart

   Guitar 1 (Art) V  V  V  V  V  ^  V  V      V  V  V  V  V  ^  V  V
e|---------------------------------------------------------------------|
B|---------------------------------------------------------------------|
G|---------------------------------------------------------------------|
D|--11~----10~----11-11-11-11-11-11-11-11-----11-11-11-11-11-11-11-11--|
A|--11~----10~----X--X--X--X--X--X--X--X------X--X--X--X--X--X--X--X---|
E|--9~~----8~~----9--9--9--9--9--9--9--9------9--9--9--9--9--9--9--9---|
    Db     C                Db                          Db

   Guitar 2 (Lead)

e|------------------------------------------------------8-10-------------------8-10--|
B|-----------------------------------------------------------------------------------|
G|--6-6-6-6-6-6-6-6-5-5-5-5-5-5-5-5-5--6-6-6-6-6-6-6-6--------6-6-6-6-6-6-6-6--------|
D|--6-6-6-6-6-6-6-6-5-5-5-5-5-5-5-5-5--X-X-X-X-X-X-X-X--------X-X-X-X-X-X-X-X--------|
A|--4-4-4-4-4-4-4-4-3-3-3-3-3-3-3-3-3--4-4-4-4-4-4-4-4--------4-4-4-4-4-4-4-4--------|
E|-----------------------------------------------------------------------------------|
    (------------Palm Mute----------)
           Db              C                 Db                      Db

   Bass
G|-------------------------------------------------------------------------|
D|-------------------------------------------------------------------------|
A|-------------------------------------------------------------------------|
E|--9-9-9-9-9-9-9-9-8-8-8-8-8-8-8-8--9-9-9-9-9-9-9-9------9-9-9-9-9-9-9-9--|
           Db              C               Db                    Db

  Guitar 1 (Art)
    V  V  V  V  V  ^  V  V        V  V  V  V  V  ^  V  V
e|---------------------------------------------------------|
B|---------------------------------------------------------|
G|---------------------------------------------------------|
D|--11-11-11-11-11-11-11-11--X-X--11-11-11-11-11-11-11-11--|
A|--X--X--X--X--X--X--X--X---X-X--X--X--X--X--X--X--X--X---|
E|--9--9--9--9--9--9--9--9---X-X--9--9--9--9--9--9--9--9---|
    (------------------Db Octive Chord-------------------)

  Guitar 2 (Lead)
    V V V V V ^ V V       V V V V V ^ V V
e|-------------------8-10------------------8-10--|
B|-----------------------------------------------|
G|--6-6-6-6-6-6-6-6-------6-6-6-6-6-6-6-6--------|
D|--X-X-X-X-X-X-X-X-------X-X-X-X-X-X-X-X--------|
A|--4-4-4-4-4-4-4-4-------4-4-4-4-4-4-4-4--------|
E|-----------------------------------------------|
          Db                     Db

   Bass
G|---------------------------------------|
D|---------------------------------------|
A|---------------------------------------|
E|--9-9-9-9-9-9-9-9-----9-9-9-9-9-9-9-9--|
           Db                  Db
     People love to break your heart       Break !

  Guitar 1 (Art)
    V  V  V  V  V  ^  V  V        V  V  V  V  V  ^  V  V
e|---------------------------------------------------------|
B|---------------------------------------------------------|
G|---------------------------------------------------------|
D|--11-11-11-11-11-11-11-11--X-X--11-11-11-11-11-11-11-11--|
A|--X--X--X--X--X--X--X--X---X-X--X--X--X--X--X--X--X--X---|
E|--9--9--9--9--9--9--9--9---X-X--9--9--9--9--9--9--9--9---|
    (------------------Db Octive Chord-------------------)

  Guitar 2 (Lead)
    V V V V V ^ V V       V V V V V ^ V V
e|-------------------8-10------------------8-10--|
B|-----------------------------------------------|
G|--6-6-6-6-6-6-6-6-------6-6-6-6-6-6-6-6--------|
D|--X-X-X-X-X-X-X-X-------X-X-X-X-X-X-X-X--------|
A|--4-4-4-4-4-4-4-4-------4-4-4-4-4-4-4-4--------|
E|-----------------------------------------------|
          Db                     Db

   Bass
G|---------------------------------------|
D|---------------------------------------|
A|---------------------------------------|
E|--9-9-9-9-9-9-9-9-----9-9-9-9-9-9-9-9--|
           Db                  Db

  Guitar 1 (Art)
    V  V  V  V  V  ^  V  V        V  V  V  V  V  ^  V  V
e|---------------------------------------------------------|
B|---------------------------------------------------------|
G|---------------------------------------------------------|
D|--11-11-11-11-11-11-11-11--X-X--11-11-11-11-11-11-11-11--|
A|--X--X--X--X--X--X--X--X---X-X--X--X--X--X--X--X--X--X---|
E|--9--9--9--9--9--9--9--9---X-X--9--9--9--9--9--9--9--9---|
    (------------------Db Octive Chord-------------------)

  Guitar 2 (Lead)
    V V V V V ^ V V       V V V V V ^ V V
e|-------------------8-10------------------8-10--|
B|-----------------------------------------------|
G|--6-6-6-6-6-6-6-6-------6-6-6-6-6-6-6-6--------|
D|--X-X-X-X-X-X-X-X-------X-X-X-X-X-X-X-X--------|
A|--4-4-4-4-4-4-4-4-------4-4-4-4-4-4-4-4--------|
E|-----------------------------------------------|
          Db                     Db

   Bass
G|---------------------------------------|
D|---------------------------------------|
A|---------------------------------------|
E|--9-9-9-9-9-9-9-9-----9-9-9-9-9-9-9-9--|
           Db                  Db

   Guitar 1 (Art) V  V  V  V  V  ^  V  V      V  V  V  V  V  ^  V  V
e|---------------------------------------------------------------------|
B|---------------------------------------------------------------------|
G|---------------------------------------------------------------------|
D|--11~----10~----11-11-11-11-11-11-11-11-----11-11-11-11-11-11-11-11--|
A|--11~----10~----X--X--X--X--X--X--X--X------X--X--X--X--X--X--X--X---|
E|--9~~----8~~----9--9--9--9--9--9--9--9------9--9--9--9--9--9--9--9---|
    Db     C                Db                          Db

   Guitar 2 (Lead)

e|------------------------------------------------------8-10-------------------8-10--|
B|-----------------------------------------------------------------------------------|
G|--6-6-6-6-6-6-6-6-5-5-5-5-5-5-5-5-5--6-6-6-6-6-6-6-6--------6-6-6-6-6-6-6-6--------|
D|--6-6-6-6-6-6-6-6-5-5-5-5-5-5-5-5-5--X-X-X-X-X-X-X-X--------X-X-X-X-X-X-X-X--------|
A|--4-4-4-4-4-4-4-4-3-3-3-3-3-3-3-3-3--4-4-4-4-4-4-4-4--------4-4-4-4-4-4-4-4--------|
E|-----------------------------------------------------------------------------------|
    (------------Palm Mute----------)
           Db              C                 Db                      Db

   Bass
G|-------------------------------------------------------------------------|
D|-------------------------------------------------------------------------|
A|-------------------------------------------------------------------------|
E|--9-9-9-9-9-9-9-9-8-8-8-8-8-8-8-8--9-9-9-9-9-9-9-9------9-9-9-9-9-9-9-9--|
           Db              C               Db                    Db
    I do not believe in the things I can not see

   Guitar 1 (Art) V  V  V  V  V  ^  V  V      V  V  V  V  V  ^  V  V
e|---------------------------------------------------------------------|
B|---------------------------------------------------------------------|
G|---------------------------------------------------------------------|
D|--11~----10~----11-11-11-11-11-11-11-11-----11-11-11-11-11-11-11-11--|
A|--11~----10~----X--X--X--X--X--X--X--X------X--X--X--X--X--X--X--X---|
E|--9~~----8~~----9--9--9--9--9--9--9--9------9--9--9--9--9--9--9--9---|
    Db     C                Db                          Db

   Guitar 2 (Lead)

e|------------------------------------------------------8-10-------------------8-10--|
B|-----------------------------------------------------------------------------------|
G|--6-6-6-6-6-6-6-6-5-5-5-5-5-5-5-5-5--6-6-6-6-6-6-6-6--------6-6-6-6-6-6-6-6--------|
D|--6-6-6-6-6-6-6-6-5-5-5-5-5-5-5-5-5--X-X-X-X-X-X-X-X--------X-X-X-X-X-X-X-X--------|
A|--4-4-4-4-4-4-4-4-3-3-3-3-3-3-3-3-3--4-4-4-4-4-4-4-4--------4-4-4-4-4-4-4-4--------|
E|-----------------------------------------------------------------------------------|
    (------------Palm Mute----------)
           Db              C                 Db                      Db

   Bass
G|-------------------------------------------------------------------------|
D|-------------------------------------------------------------------------|
A|-------------------------------------------------------------------------|
E|--9-9-9-9-9-9-9-9-8-8-8-8-8-8-8-8--9-9-9-9-9-9-9-9------9-9-9-9-9-9-9-9--|
           Db              C               Db                    Db
      I do not believe in the pretty sky                   Tell you the
truth ???

   Guitar 1 (Art) V  V  V  V  V  ^  V  V      V  V  V  V  V  ^  V  V
e|---------------------------------------------------------------------|
B|---------------------------------------------------------------------|
G|---------------------------------------------------------------------|
D|--11~----10~----11-11-11-11-11-11-11-11-----11-11-11-11-11-11-11-11--|
A|--11~----10~----X--X--X--X--X--X--X--X------X--X--X--X--X--X--X--X---|
E|--9~~----8~~----9--9--9--9--9--9--9--9------9--9--9--9--9--9--9--9---|
    Db     C                Db                          Db

   Guitar 2 (Lead)

e|------------------------------------------------------8-10-------------------8-10--|
B|-----------------------------------------------------------------------------------|
G|--6-6-6-6-6-6-6-6-5-5-5-5-5-5-5-5-5--6-6-6-6-6-6-6-6--------6-6-6-6-6-6-6-6--------|
D|--6-6-6-6-6-6-6-6-5-5-5-5-5-5-5-5-5--X-X-X-X-X-X-X-X--------X-X-X-X-X-X-X-X--------|
A|--4-4-4-4-4-4-4-4-3-3-3-3-3-3-3-3-3--4-4-4-4-4-4-4-4--------4-4-4-4-4-4-4-4--------|
E|-----------------------------------------------------------------------------------|
    (------------Palm Mute----------)
           Db              C                 Db                      Db

   Bass
G|-------------------------------------------------------------------------|
D|-------------------------------------------------------------------------|
A|-------------------------------------------------------------------------|
E|--9-9-9-9-9-9-9-9-8-8-8-8-8-8-8-8--9-9-9-9-9-9-9-9------9-9-9-9-9-9-9-9--|
           Db              C               Db                    Db
          know what's best for me                               You know
that its true

   Guitar 1 (Art) V  V  V  V  V  ^  V  V      V  V  V  V  V  ^  V  V
e|---------------------------------------------------------------------|
B|---------------------------------------------------------------------|
G|---------------------------------------------------------------------|
D|--11~----10~----11-11-11-11-11-11-11-11-----11-11-11-11-11-11-11-11--|
A|--11~----10~----X--X--X--X--X--X--X--X------X--X--X--X--X--X--X--X---|
E|--9~~----8~~----9--9--9--9--9--9--9--9------9--9--9--9--9--9--9--9---|
    Db     C                Db                          Db

   Guitar 2 (Lead)

e|------------------------------------------------------8-10-------------------8-10--|
B|-----------------------------------------------------------------------------------|
G|--6-6-6-6-6-6-6-6-5-5-5-5-5-5-5-5-5--6-6-6-6-6-6-6-6--------6-6-6-6-6-6-6-6--------|
D|--6-6-6-6-6-6-6-6-5-5-5-5-5-5-5-5-5--X-X-X-X-X-X-X-X--------X-X-X-X-X-X-X-X--------|
A|--4-4-4-4-4-4-4-4-3-3-3-3-3-3-3-3-3--4-4-4-4-4-4-4-4--------4-4-4-4-4-4-4-4--------|
E|-----------------------------------------------------------------------------------|
   (------------Palm Mute----------)
           Db              C                 Db                      Db

   Bass
G|-------------------------------------------------------------------------|
D|-------------------------------------------------------------------------|
A|-------------------------------------------------------------------------|
E|--9-9-9-9-9-9-9-9-8-8-8-8-8-8-8-8--9-9-9-9-9-9-9-9------9-9-9-9-9-9-9-9--|
           Db              C               Db                    Db
   People love to hit you when you close your eyes         People love to
hurt you

  Guitar 1 (Art)
    V  V  V  V  V  ^  V  V        V  V  V  V  V  ^  V  V
e|---------------------------------------------------------|
B|---------------------------------------------------------|
G|---------------------------------------------------------|
D|--11-11-11-11-11-11-11-11--X-X--11-11-11-11-11-11-11-11--|
A|--X--X--X--X--X--X--X--X---X-X--X--X--X--X--X--X--X--X---|
E|--9--9--9--9--9--9--9--9---X-X--9--9--9--9--9--9--9--9---|
    (------------------Db Octive Chord-------------------)

  Guitar 2 (Lead)
    V V V V V ^ V V       V V V V V ^ V V
e|-------------------8-10------------------8-10--|
B|-----------------------------------------------|
G|--6-6-6-6-6-6-6-6-------6-6-6-6-6-6-6-6--------|
D|--X-X-X-X-X-X-X-X-------X-X-X-X-X-X-X-X--------|
A|--4-4-4-4-4-4-4-4-------4-4-4-4-4-4-4-4--------|
E|-----------------------------------------------|
          Db                     Db

   Bass
G|---------------------------------------|
D|---------------------------------------|
A|---------------------------------------|
E|--9-9-9-9-9-9-9-9-----9-9-9-9-9-9-9-9--|
           Db                  Db
   when you close your eyes          GO !

  Guitar 1 (Art)
    V  V  V  V  V  ^  V  V        V  V  V  V  V  ^  V  V
e|---------------------------------------------------------|
B|---------------------------------------------------------|
G|---------------------------------------------------------|
D|--11-11-11-11-11-11-11-11--X-X--11-11-11-11-11-11-11-11--|
A|--X--X--X--X--X--X--X--X---X-X--X--X--X--X--X--X--X--X---|
E|--9--9--9--9--9--9--9--9---X-X--9--9--9--9--9--9--9--9---|
    (------------------Db Octive Chord-------------------)

  Guitar 2 (Lead)
    V V V V V ^ V V       V V V V V ^ V V
e|-------------------8-10------------------8-10--|
B|-----------------------------------------------|
G|--6-6-6-6-6-6-6-6-------6-6-6-6-6-6-6-6--------|
D|--X-X-X-X-X-X-X-X-------X-X-X-X-X-X-X-X--------|
A|--4-4-4-4-4-4-4-4-------4-4-4-4-4-4-4-4--------|
E|-----------------------------------------------|
          Db                     Db

   Bass
G|---------------------------------------|
D|---------------------------------------|
A|---------------------------------------|
E|--9-9-9-9-9-9-9-9-----9-9-9-9-9-9-9-9--|
           Db                  Db
                               People love to hurt you

  Guitar 1 (Art)
    V  V  V  V  V  ^  V  V        V  V  V  V  V  ^  V  V
e|---------------------------------------------------------|
B|---------------------------------------------------------|
G|---------------------------------------------------------|
D|--11-11-11-11-11-11-11-11--X-X--11-11-11-11-11-11-11-11--|
A|--X--X--X--X--X--X--X--X---X-X--X--X--X--X--X--X--X--X---|
E|--9--9--9--9--9--9--9--9---X-X--9--9--9--9--9--9--9--9---|
    (------------------Db Octive Chord-------------------)

  Guitar 2 (Lead)
    V V V V V ^ V V       V V V V V ^ V V
e|-------------------8-10------------------|
B|-----------------------------------------|
G|--6-6-6-6-6-6-6-6-------6-6-6-6-6-6-6-6--|
D|--X-X-X-X-X-X-X-X-------X-X-X-X-X-X-X-X--|
A|--4-4-4-4-4-4-4-4-------4-4-4-4-4-4-4-4--|
E|-----------------------------------------|
          Db                     Db

   Bass
G|-----------------------------------|
D|-----------------------------------|
A|-----------------------------------|
E|--9-9-9-9-9-9-9-9-----9-9-9-9-9-9--|
           Db                Db
   when you close your eyes

  Chorus

   Guitars 1 & 2
e|-------------------------------------------|
B|-------------------------------------------|
G|-------------------------------------------|
D|--12-12-12-12-10-10-10-10-9-9-9-9-7-7-7-7--|
A|--12-12-12-12-10-10-10-10-9-9-9-9-7-7-7-7--|
E|--10-10-10-10-8--8--8--8--7-7-7-7-5-5-5-5--|
         D          C          B       A

   Bass
G|-------------------------------------------|
D|-------------------------------------------|
A|-------------------------------------------|
E|--10-10-10-10-8--8--8--8--7-7-7-7-5-5-5-5--|
         D          C          B       A
        It's a beautiful day         It's a beautiful day

   Guitars 1 & 2
e|-------------------------------------------|
B|-------------------------------------------|
G|-------------------------------------------|
D|--12-12-12-12-10-10-10-10-9-9-9-9-7-7-7-7--|
A|--12-12-12-12-10-10-10-10-9-9-9-9-7-7-7-7--|
E|--10-10-10-10-8--8--8--8--7-7-7-7-5-5-5-5--|
         D          C          B       A

   Bass
G|-------------------------------------------|
D|-------------------------------------------|
A|-------------------------------------------|
E|--10-10-10-10-8--8--8--8--7-7-7-7-5-5-5-5--|
         D          C          B       A
        It's a beautiful day         It's a beautiful day

  Guitars 1 & 2
e|-------------------------------------------|
B|-------------------------------------------|
G|-------------------------------------------|
D|--12-12-12-12-10-10-10-10-9-9-9-9-7-7-7-7--|
A|--12-12-12-12-10-10-10-10-9-9-9-9-7-7-7-7--|
E|--10-10-10-10-8--8--8--8--7-7-7-7-5-5-5-5--|
         D          C          B       A

   Bass
G|-------------------------------------------|
D|-------------------------------------------|
A|-------------------------------------------|
E|--10-10-10-10-8--8--8--8--7-7-7-7-5-5-5-5--|
         D          C          B       A
        It's a beautiful day           yeah e yeah

  Guitars 1 & 2
e|---------------------------------------|
B|---------------------------------------|
G|---------------------------------------|
D|--12-12-12-12-10-10-10-10-9-9-9-9-7-7--|
A|--12-12-12-12-10-10-10-10-9-9-9-9-7-7--|
E|--10-10-10-10-8--8--8--8--7-7-7-7-5-5--|
         D          C          B     A

   Bass
G|---------------------------------------|
D|---------------------------------------|
A|---------------------------------------|
E|--10-10-10-10-8--8--8--8--7-7-7-7-5-5--|
         D          C          B     A
        It's a beautiful day                 It's a beautiful day

   Outro

  Guitars 1 (Art)
e|-------------------------------------------|
B|-------------------------------------------|
G|-------------------------------------------|
D|--12-12-12-12-10-10-10-10-9-9-9-9-7-7-7-7--|
A|--12-12-12-12-10-10-10-10-9-9-9-9-7-7-7-7--|
E|--10-10-10-10-8--8--8--8--7-7-7-7-5-5-5-5--|
         D          C          B       A
    (--------------Palm Muted-------------)

  ***Guitar 2 (Rythum) & Bass Tacet***
                                   Such a beautiful day
         (Look at the skies now)

  Guitars 1 (Art)
e|-------------------------------------------|
B|-------------------------------------------|
G|-------------------------------------------|
D|--12-12-12-12-10-10-10-10-9-9-9-9-7-7-7-7--|
A|--12-12-12-12-10-10-10-10-9-9-9-9-7-7-7-7--|
E|--10-10-10-10-8--8--8--8--7-7-7-7-5-5-5-5--|
         D          C          B       A
    (--------------Palm Muted-------------)
  ***Guitar 2 (Rythum) & Bass Tacet***
                                   It's a beautiful day
         (Look at the skies now)

  Guitars 1 & 2
e|-------------------------------------------|
B|-------------------------------------------|
G|-------------------------------------------|
D|--12-12-12-12-10-10-10-10-9-9-9-9-7-7-7-7--|
A|--12-12-12-12-10-10-10-10-9-9-9-9-7-7-7-7--|
E|--10-10-10-10-8--8--8--8--7-7-7-7-5-5-5-5--|
         D          C          B     A
    (------------Palm Mute----------------)

   Bass
G|-------------------------------------------|
D|-------------------------------------------|
A|-------------------------------------------|
E|--10-10-10-10-8--8--8--8--7-7-7-7-5-5-5-5--|
         D          C          B     A
                                   It's a beautiful day
         (Look at the skies now)

  Guitars 1 & 2
e|---------------------------------------|
B|---------------------------------------|
G|---------------------------------------|
D|--12-12-12-12-10-10-10-10-9-9-9-9-7-7--|
A|--12-12-12-12-10-10-10-10-9-9-9-9-7-7--|
E|--10-10-10-10-8--8--8--8--7-7-7-7-5-5--|
         D          C          B     A
    (---------------Palm Mute-----)

   Bass
G|---------------------------------------|
D|---------------------------------------|
A|---------------------------------------|
E|--10-10-10-10-8--8--8--8--7-7-7-7-5-5--|
         D          C          B     A
                                   It's a beautiful day
         (Look at the skies now)

   Guitars 1 & 2
e|-------------------------------------------|
B|-------------------------------------------|
G|-------------------------------------------|
D|--12-12-12-12-10-10-10-10-9-9-9-9-7-7-7-7--|
A|--12-12-12-12-10-10-10-10-9-9-9-9-7-7-7-7--|
E|--10-10-10-10-8--8--8--8--7-7-7-7-5-5-5-5--|
         D          C          B     A

   Bass
G|-------------------------------------------|
D|-------------------------------------------|
A|-------------------------------------------|
E|--10-10-10-10-8--8--8--8--7-7-7-7-5-5-5-5--|
         D          C          B     A
                                   It's a beautiful day
         (Look at the skies now)

  Guitars 1 & 2
e|-------------------------------------------|
B|-------------------------------------------|
G|-------------------------------------------|
D|--12-12-12-12-10-10-10-10-9-9-9-9-7-7-7-7--|
A|--12-12-12-12-10-10-10-10-9-9-9-9-7-7-7-7--|
E|--10-10-10-10-8--8--8--8--7-7-7-7-5-5-5-5--|
         D          C          B     A

   Bass
G|-------------------------------------------|
D|-------------------------------------------|
A|-------------------------------------------|
E|--10-10-10-10-8--8--8--8--7-7-7-7-5-5-5-5--|
         D          C          B     A
                                   It's a beautiful day
         (Look at the skies now)

  Guitars 1 & 2
e|-------------------------------------------|
B|-------------------------------------------|
G|-------------------------------------------|
D|--12-12-12-12-10-10-10-10-9-9-9-9-7-7-7-7--|
A|--12-12-12-12-10-10-10-10-9-9-9-9-7-7-7-7--|
E|--10-10-10-10-8--8--8--8--7-7-7-7-5-5-5-5--|
         D          C          B     A

   Bass
G|-------------------------------------------|
D|-------------------------------------------|
A|-------------------------------------------|
E|--10-10-10-10-8--8--8--8--7-7-7-7-5-5-5-5--|
         D          C          B     A
                                   It's a beautiful day
         (Look at the skies now)

  Guitars 1 & 2
e|-------------------------------------------|
B|-------------------------------------------|
G|-------------------------------------------|
D|--12-12-12-12-10-10-10-10-9-9-9-9-7-7-7-7--|
A|--12-12-12-12-10-10-10-10-9-9-9-9-7-7-7-7--|
E|--10-10-10-10-8--8--8--8--7-7-7-7-5-5-5-5--|
         D          C          B     A

   Bass
G|-------------------------------------------|
D|-------------------------------------------|
A|-------------------------------------------|
E|--10-10-10-10-8--8--8--8--7-7-7-7-5-5-5-5--|
         D          C          B     A
                                   You will never see it coming
         (Look at the skies now)

  Guitar 1 (Art)
    V  V  V  V  V  ^  V  V        V  V  V  V  V  ^  V  V
e|---------------------------------------------------------|
B|---------------------------------------------------------|
G|---------------------------------------------------------|
D|--11-11-11-11-11-11-11-11--X-X--11-11-11-11-11-11-11-11--|
A|--X--X--X--X--X--X--X--X---X-X--X--X--X--X--X--X--X--X---|
E|--9--9--9--9--9--9--9--9---X-X--9--9--9--9--9--9--9--9---|
    (------------------Db Octive Chord-------------------)

  Guitar 2 (Lead)
    V V V V V ^ V V       V V V V V ^ V V
e|-------------------8-10------------------8-10--|
B|-----------------------------------------------|
G|--6-6-6-6-6-6-6-6-------6-6-6-6-6-6-6-6--------|
D|--X-X-X-X-X-X-X-X-------X-X-X-X-X-X-X-X--------|
A|--4-4-4-4-4-4-4-4-------4-4-4-4-4-4-4-4--------|
E|-----------------------------------------------|
          Db                     Db

   Bass
G|---------------------------------------|
D|---------------------------------------|
A|---------------------------------------|
E|--9-9-9-9-9-9-9-9-----9-9-9-9-9-9-9-9--|
           Db                  Db
                             You will never see it coming

  Guitar 1 (Art)
    V  V  V  V  V  ^  V  V        V  V  V  V  V  ^  V  V
e|---------------------------------------------------------|
B|---------------------------------------------------------|
G|---------------------------------------------------------|
D|--11-11-11-11-11-11-11-11--X-X--11-11-11-11-11-11-11-11--|
A|--X--X--X--X--X--X--X--X---X-X--X--X--X--X--X--X--X--X---|
E|--9--9--9--9--9--9--9--9---X-X--9--9--9--9--9--9--9--9---|
    (------------------Db Octive Chord-------------------)

  Guitar 2 (Lead)
    V V V V V ^ V V       V V V V V ^ V V
e|-------------------8-10------------------8-10--|
B|-----------------------------------------------|
G|--6-6-6-6-6-6-6-6-------6-6-6-6-6-6-6-6--------|
D|--X-X-X-X-X-X-X-X-------X-X-X-X-X-X-X-X--------|
A|--4-4-4-4-4-4-4-4-------4-4-4-4-4-4-4-4--------|
E|-----------------------------------------------|
          Db                     Db

   Bass
G|---------------------------------------|
D|---------------------------------------|
A|---------------------------------------|
E|--9-9-9-9-9-9-9-9-----9-9-9-9-9-9-9-9--|
           Db                  Db
                                 You will never see it coming

  Guitar 1 (Art)
    V  V  V  V  V  ^  V  V        V  V  V  V  V  ^  V  V
e|---------------------------------------------------------|
B|---------------------------------------------------------|
G|---------------------------------------------------------|
D|--11-11-11-11-11-11-11-11--X-X--11-11-11-11-11-11-11-11--|
A|--X--X--X--X--X--X--X--X---X-X--X--X--X--X--X--X--X--X---|
E|--9--9--9--9--9--9--9--9---X-X--9--9--9--9--9--9--9--9---|
    (------------------Db Octive Chord-------------------)

  Guitar 2 (Lead)
    V V V V V ^ V V       V V V V V ^ V V
e|-------------------8-10------------------8-10--|
B|-----------------------------------------------|
G|--6-6-6-6-6-6-6-6-------6-6-6-6-6-6-6-6--------|
D|--X-X-X-X-X-X-X-X-------X-X-X-X-X-X-X-X--------|
A|--4-4-4-4-4-4-4-4-------4-4-4-4-4-4-4-4--------|
E|-----------------------------------------------|
          Db                     Db

   Bass
G|---------------------------------------|
D|---------------------------------------|
A|---------------------------------------|
E|--9-9-9-9-9-9-9-9-----9-9-9-9-9-9-9-9--|
           Db                  Db
                                 You will never see it coming

  Guitar 1 (Art)
    V  V  V  V  V  ^  V  V        V  V  V  V  V  ^  V  V
e|---------------------------------------------------------|
B|---------------------------------------------------------|
G|---------------------------------------------------------|
D|--11-11-11-11-11-11-11-11--X-X--11-11-11-11-11-11-11-11--|
A|--X--X--X--X--X--X--X--X---X-X--X--X--X--X--X--X--X--X---|
E|--9--9--9--9--9--9--9--9---X-X--9--9--9--9--9--9--9--9---|
    (------------------Db Octive Chord-------------------)

  Guitar 2 (Lead)
    V V V V V ^ V V       V V V V V ^ V V
e|-------------------8-10------------------|
B|-----------------------------------------|
G|--6-6-6-6-6-6-6-6-------6-6-6-6-6-6-6-6--|
D|--X-X-X-X-X-X-X-X-------X-X-X-X-X-X-X-X--|
A|--4-4-4-4-4-4-4-4-------4-4-4-4-4-4-4-4--|
E|-----------------------------------------|
          Db                     Db

   Bass
G|---------------------------------------|
D|---------------------------------------|
A|---------------------------------------|
E|--9-9-9-9-9-9-9-9-----9-9-9-9-9-9-9-9--|

JASON'S EVERCLEAR TABS - http://members.tripod.com/~panec/