I'm On Your Time
As recorded by Everclear on the "Wonderful" US Single
Tabbed by Hugh Yik (hyik@nb.sympatico.ca) and Grayson P (everly0@hotmail.com) 

Version 1: Tabbed by Hugh Yik

INTRO

e|----------------------------|THEN INTO "A"
B|----------------------------|
G|----------------------------|
D|--7-11-9---6-9-6----5--11-9-|
A|--5-9--7---4-7-4----5--9--7-|
E|----------------------------|


VERSE RIFF
    A
e|----------------------------------|
B|----------------------------------|
G|----------------------------------|
D|--7-7-7-7-7-7-7-7-7-7-7-7-7-7-7-7-|
A|--7-7-7-7-7-7-7-7-7-7-7-7-7-7-7-7-|
E|--5-5-5-5-5-5-5-5-5-5-5-5-5-5-5-5-|
 |PM.ed............................ |
 |           C# D E           E D C#|
e|----------------------------------|
B|----------------------------------|
G|------------6-7-9-----------9-7-6-|
D|------------6-7-9-----------9-7-6-|
A|------------4-5-7-----------7-5-4-|
E|----------------------------------|

PRE- CHORUS--> IS "A" GRADUALY RELEASING PALM MUTE

CHORUS 1
    D       A       C#      E       D       
e|--------------------------------------------------|
B|--------------------------------------------------|
G|--7-7-7-7---------6-6-6-6-9-9-9-9-7-7-7-7-7-7-7-7-|
D|--7-7-7-7-7-7-7-7-6-6-6-6-9-9-9-9-7-7-7-7-7-7-7-7-|
A|--5-5-5-5-7-7-7-7-4-4-4-4-7-7-7-7-5-5-5-5-5-5-5-5-|
E|----------5-5-5-5--------------------------|

VERSE RIFF VERIATION
    G#/  A          G#/  A
e|----------------------------------|
B|----------------------------------|
G|----------------------------------|
D|--6/7-7-7-7-7-7-7-6/7-7-7-7-7-7-7-|
A|--6/7-7-7-7-7-7-7-6/7-7-7-7-7-7-7-|
E|--4/5-5-5-5-5-5-5-4/5-5-5-5-5-5-5-|
 |PM.ed............................ |
 |           C# D E           E D C#|
e|----------------------------------|
B|----------------------------------|
G|------------6-7-9-----------9-7-6-|
D|------------6-7-9-----------9-7-6-|
A|------------4-5-7-----------7-5-4-|
E|----------------------------------|


CHORUS 2
    D       A       C#      E       D      A
e|-------------------------------------------------->
B|-------------------------------------------------->
G|--7-7-7-7---------6-6-6-6-9-9-9-9-7-7-7-7--------->
D|--7-7-7-7-7-7-7-7-6-6-6-6-9-9-9-9-7-7-7-7-7-7-7-7->
A|--5-5-5-5-7-7-7-7-4-4-4-4-7-7-7-7-5-5-5-5-7-7-7-7->
E|----------5-5-5-5-------------------------5-5-5-5->

     B      C       D       A       C#     E         D
e|------------------------------------------------------------------|
B|------------------------------------------------------------------|
G|--4-4-4-4-6-6-6-6-7-7-7-7---------6-6-6-6-9-9-9-9-7-7-7-7-7-7-7-7-|
D|--4-4-4-4-6-6-6-6-7-7-7-7-7-7-7-7-6-6-6-6-9-9-9-9-7-7-7-7-7-7-7-7-|
A|--2-2-2-2-4-4-4-4-5-5-5-5-7-7-7-7-4-4-4-4-7-7-7-7-5-5-5-5-5-5-5-5-|
E|--------------------------5-5-5-5---------------------------------|


FILL riff?
    D           E F F#        F E  D A          G#/  A 
e|-------------------------------------------------------------------------|
B|-------------------------------------------------------------------------|
G|--7-7-7-7-7-7-9-10-11-11-11-11-11-10-9-7---------------------------------|
D|--7-7-7-7-7-7-9-10-11-11-11-11-11-10-9-7-7-7-7-7-7-7-6/7-5-5-5-5-5-5-5-5-|
A|--5-5-5-5-5-5-7-8--9--9--9--9--9--8--7-5-7-7-7-7-7-7-6/7-5-5-5-5-5-5-5-5-|
E|-----------------------------------------5-5-5-5-5-5-6/7-5-5-5-5-5-5-5-5-|


SLIDES
e|---------|
B|---------|
G|---------|
D|--14\2---|
A|--12\0---|
E|---------|

END ON STRUMMED "D"

Version 2: Tabbed by Grayson P (everly0@hotmail.com)

 Strings Intro (Arranged for Guitar)
    D F# E C#C# E C#         D     F#     E
 e|----------------------------------------------------------|
 B|----------------------------------------------------------|
 G|----------------------------------------------------------|
 D|----------------------------------------------------------|
 A|-5--9--7-4-4--7--4---pause---5-----9------7---------------|
 E|----------------------------------------------------------|

 Verse
    C#         A     D E        A      E D
 e|----------------------------------------------------------| 
 B|----------------------------------------------------------|
 G|----------------------------------------------------------|      X  4
 D|-----2-2-2-2-2-2-7-9-2-2-2-2-2-2-9-7----------------------|
 A|-4---0-0-0-0-0-0-5-7-0-0-0-0-0-0-7-5----------------------|
 E|----------------------------------------------------------|

 Verse continued
                     A
 e|----------------------------------------------------------|
 B|----------------------------------------------------------| 
 G|----------------------------------------------------------|    X  8
 D|-2-2-2-2-2-2-2-2-2-2-2-2-2-2-2-2--------------------------|
 A|-0-0-0-0-0-0-0-0-0-0-0-0-0-0-0-0--------------------------|
 E|----------------------------------------------------------|
 BASS PART PLAYS :
 A|0-0-0-0-0-0-5-7-0-0-0-0-0-0-7-5---------------------------|    X  8 
 E|----------------------------------------------------------|
    note : Bass gets louder after each time played
 
 Pre Chorus (Both Bass and Guitar : Get Louder after everyone)
                      A
 e|----------------------------------------------------------| 
 B|----------------------------------------------------------|
 G|----------------------------------------------------------| 
 D|-2-2-2-2-2-2-2-2-2-2-2-2-2-2-2-2--------------------------|
 A|-0-0-0-0-0-0-0-0-0-0-0-0-0-0-0-0--------------------------|
 E|----------------------------------------------------------| 

 Chorus (Both Bass And Guitar play this)
    D        A       C#        E                D        A
 e|-----------------------------------------------------------| 
 B|-----------------------------------------------------------|
 G|-----------------------------------------------------------| 
 D|--7--------2--------6----------11----------7-7-7-7-2-2-2-2-|   
 A|--5--------0--------4-----------9----------5-5-5-5-0-0-0-0-|
 E|-----------------------------------------------------------|

 Bridge
                      D                   E          F#
 e|----------------------------------------------------------------|
 B|----------------------------------------------------------------| 
 G|----------------------------------------------------------------| 
 D|-------7-------7-------7------7--------9---------11-------------|
 A|-------5-------5-------5------5--------7----------9-------------|
 E|----------------------------------------------------------------| 


 ORDER OF PLAYING

 Strings Intro  X 1
 Verse           X 4
 Verse (cont)  X 8
 Pre Chorus   X 1
 Chorus         X 1
 Verse           X 2
 Verse (cont)  X 8
 Pre Chorus   X 1
 Chorus         X 4
 Bridge          X 2
 Verse           X 2
 Verse (cont)  X 8
 Pre Chorus   X 1
 Chorus         X 8


I'm on your time
Ya you do that blue spark too
I do those half hearts
No one can push my buttons like you do

My weak arms can hope to hold you,
Ya I'm on your time

I'm on your time
Yah, you really keep me quite amused
I say i wish that you could just get over youself
You say were in this for the abuse.

I run reckless
Miles behind you
Baby you know i get so violent sometimes,
My weak arms can't hope to hold you,
I'm on your time

We will never forget...

I'm on your time
You say we cant go on this way
Oh, oh, oh, oh, oh
I say I wish that you could fix this broken thing in me.
You say that'd be a happy, happy day.

I run reckless miles behind you,
Baby, you know I get so fucked up inside.
My weak arms can't hope to hold you,
I'm on your time.

JASON'S EVERCLEAR TABS - http://members.tripod.com/~panec/