I'm On Your Time
As recorded by Everclear on the Wonderful US single
Tabbed by Patrick McFadden (FredDust207@cs.com)

VERSE RIFF
G|----------------------------------|
D|----------------------------------|
A|------------4-5-7-----------7-5-4-|
E|--5-5-5-5-5-------5-5-5-5-5-------|

PRE- CHORUS
G|--------------------------------------------------|
D|--------------------------------------------------|
A|--------------------------------------------------|
E|--5-5-5-5-5-5-5-5-5-5-5-5-5-5-5-5-5-5-5-5-5-5-5-5-|

CHORUS 1
G|--------------------------------------------------|
D|--------------------------------------------------|
A|--5-5-5-5---------4-4-4-4-7-7-7-7-5-5-5-5-5-5-5-5-|
E|----------5-5-5-5---------------------------------|

VERSE RIFF VARIATION
G|----------------------------------|
D|----------------------------------|
A|------------4-5-7-----------7-5-4-|
E|--4/5-5-5-5-------4/5-5-5-5-------|

CHORUS 2
G|-----------------------------------------------------------------
D|-----------------------------------------------------------------
A|--5-5-5-5---------4-4-4-4-7-7-7-7-5-5-5-5---------2-2-2-2-4-4-4-4
E|----------5-5-5-5-------------------------5-5-5-5----------------

G|--------------------------------------------------|
D|--------------------------------------------------|
A|--5-5-5-5-7-7-7-7-4-4-4-4---------5-5-5-5-5-5-5-5-|
E|--------------------------5-5-5-5-----------------|


EXTENDED CHORUS
G|-----------------------------------------|
D|-----------------------------------------|
A|--5-5-5-5-5-5-7-8--9--9--9--9--9--8--7-5-|
E|-----------------------------------------|

G|-----------------------------------------|
D|-----------------------------------------|
A|-----------------------------------------|
E|--5-5-5-5-5-5-6/7-5-5-5-5-5-5-5-5--------|


Order:
Verse		X10
Pre-Chorus	X1
Chorus 1	X1
Verse		X7
Pre-Chorus	X1
Chorus 2	X1
Extended C	X1
Verse		X8
Chorus 2	X1
Verse		X2
Extended C	X1

End on a D

Also:
If you end on a B you'll have an earth shattering orgasm, but be careful. You have been warned.

JASON'S EVERCLEAR TABS - http://members.tripod.com/~panec/