Invisible (bass)
As recorded by Everclear on "World of Noise" LP
Tabbed by Joe (GRW0849@cs.com)

Intro:
G|------------------------------------------------------------------|
D|----2-/-4--4--4-\-2--2-/-4--4--4-\-2--2-/-4--4--4-\-2-------------|
A|------------------------------------------------------------------|
E|------------------------------------------------------------------|

Verse:
G|---------------------------------------|
D|---------------------------------------|
A|---------0---0---0------0----1----2----|  Repeat
E|-----2----------------2----------------|

Chorus:
G|---------------------------------------------------------------|
D|---------------------------------------------------------------|
A|---------------5~---------------------0--0--0-------0--1--2----|
E|---0~---------------------0~----2---------------2--------------|

During The Guitar Solo, Just Play The Verse

Outro: (squashed a bit so it will fit)
G|-----------------------------------------------------------|
D|-2/4-4-4\2-2/4-4-4\2-2/4-4-4\2-----------------------------|
A|-----------------------------------------0-0-0-----0-1-2\--|
E|---------------------------------------2---------2---------|

That should Be it. Enjoy. -Joe

JASON'S EVERCLEAR TABS - http://members.tripod.com/~panec/