I Want to Die a Beautiful Death
As recorded by Everclear on Slow-motion Daydream
Tabbed by Zach Larsen  (ARod5903@aol.com) and Hugh Yik (mmhsteam@hotmail.com)

VERSION 1 - Tabbed by Zach Larsen

(Sorry the chorus is so tightly packed, you get the idea though.)

Main Riff (this isn't the way it's played on the album, but it works)
-|-------------------------------------------------------------------|-
-|---------------8-8-8-8-8-9-8-8-------------------------------------|-
-|---6/8--8-(*7)-8-8-8-8-8-8-8-8---6-(*8)-5-(*8)---------------------|-
-|---6/8--8------8-8-8-8-8-8-8-8---6------5--------------------------|-
-|---4/6--6------6-6-6-6-6-6-6-6---4------3--------------------------|-
-|-------------------------------------------------------------------|-
         - - P.M. - - - - - - - - - - - - - - - - - - - - - - - - - - 

Background #1    Pre-Chorus
-|----------|- -|----------------------------------------------------|-
-|--8-------|- -|----------------------------------------------------|-
-|-----8----|- -|--4-4-4-4-4-4-4-4----4---6-6-6----------------------|-
-|----------|- -|--4-4-4-4-4-4-4-4----4---6-6-6----------------------|-
-|----------|- -|--2-2-2-2-2-2-2-2----2---4-4-4----------------------|-
-|----------|- -|----------------------------------------------------|-
                  I just wanna die pretty.
Chorus
-|-------------------------------------------------------------------|-
-|-------------------------------------------------------------------|-
-|-8(x4)---------------8(x4)-------------8(x4)--------6(x4)4(x8)6(x5)|-
-|-8--4(x4)-6(x4)4(x4)-8--4(x4)6(x4)4(x4)8--4(x4)6(x4)6----4----6----|-
-|-6--4-----6----4-----6--4----6----4----6--4----6----4----2----4----|-
-|----2-----4----2--------2----4----2-------2----4-------------------|-

Bridge #1
-|-------------------------------------------------------------------|-
-|-------------------------------------------------------------------|-
-|--8-8--4-4---------------------------------------------------------|-
-|--8-8--4-4-4-4--6-6------------------------------------------------|-
-|--6-6--2-2-4-4--6-6------------------------------------------------|-
-|-----------2-2--4-4------------------------------------------------|-
  I just wanna die a beautiful death.

(Sorry, I'm missing the rest of the song, but I have to leave, so I'll finish up later.)

VERSION 2 - Tabbed by Hugh Yik

"There is the occasional low Eb in this song, so detune if your heart 
desires"

* = play 8 times


-INTRO/VERSE- (some Eb slides in background)
           Eb  Db C             Db
e|-------|--------------------------|
B|-------|--------------------------|
G|-------|--------------------------|
D|---6/8-|-8**-6*-5-5-5-5-5-5-5-6---|
A|---4/6-|-6---4--3-3-3-3-3-3-3-4---|
E|-------|--------------------------|
pm         .......................

-LEAD FILL- enters during verse
e|--3----3------|
B|----4-----4---|
G|--------------|
D|--------------|
A|--------------|
E|--------------|


-PRE-CHORUS-

     (Jam a 'B5'for a bit till the pause)


-CHORUS-
    Eb      Gb      Db      Ab
e|----------------------------------|Repete
B|----------------------------------|
G|--8-8-8-8---------6-6-6-6---------|
D|--8-8-8-8-4-4-4-4-6-6-6-6-6-6-6-6-|
A|--6-6-6-6-4-4-4-4-4-4-4-4-6-6-6-6-|
E|----------2-2-2-2---------4-4-4-4-|

    B               Db
e|------------------------------|
B|------------------------------|
G|--4-4-4-4-4-4-4-4-6-6-6-6-6---|
D|--4-4-4-4-4-4-4-4-6-6-6-6-6---|
A|--2-2-2-2-2-2-2-2-4-4-4-4-4---|
E|------------------------------|


-OUTRO-
    Eb     B      Gb     Db
e|----------------------------|
B|----------------------------|
G|--8-8----4-4-----------6-6--|
D|--8-8----4-4----4-4----6-6--|
A|--6-6----2-2----4-4----4-4--|
E|----------------2-2---------|

(Sorry can't the the outro slides yet)

JASON'S EVERCLEAR TABS - http://members.tripod.com/~panec/