Kill The Sun (bass guitar)
As recorded by Colorfinger on "Deep In The Heart..."
Tabbed by Ashton Bailey (ashton_bailey@hotmail.com)

Intro
G|---------------------|
D|---------------------|
A|------3-2-2-2-2------|
E|--0-0-----------3-2--|
     E  C   b     G F#

Intro Continued
G|-----------------------|
D|-----------------------|
A|------3-2-2-2-2---2-2--|
E|--0-0-----------3------|
     E  G   Bb    G  Bb

Intro Continued
G|---------------------|
D|---------------------|
A|------3-2-2-2-2------|
E|--0-0-----------3-2--|
     E  C   Bb    G F#

Intro Continued
G|-------------------------|
D|-------------------------|
A|------3-2-2-2-2-0-2-2-2--|
E|--0-0--------------------|
     E  C   Bb    A   Bb

Intro Continued
G|-------------------------|
D|-------------------------|
A|--3-1-1-1-1-3-1-1-1-1-0--|
E|-------------------------|
    C    B    C    B    A

JASON'S EVERCLEAR GUITAR TABS - http://members.tripod.com/~panec/