Learning How to Smile (bass)
As recorded by Everclear on "SFAAM #1: Learning How to Smile."
Tabbed by Patrick McFadden (JackSexy11@cs.com) and Jason P (jasonsevercleartabs@hotmail.com) 

Jason tabbed out this song on for guitar on two guitars, but I noticed that his one guitar tab 
was the same as what the bass played. I converted it to Bass style and made it shorter and 
easier to read, but made sure it's all right. It is. You are dead wrong if you think it's not. 
Or maybe just dead. And if not, then you will be soon oh ye of little faith.

As terribly awful and demeaning to bass players everywhere, I'm afraid due to the speed of 
this song you WILL need a pick. I know, I know, but hey, at least you can now play the song, huh?

Intro
G|-----------------------------------------------| 
D|-----------------------------------------------| 
A|-----------------------------------------------| 
E|-6-6-6-6----6-6-6-6----6-6-6-6----6-6-6-6------|

G|-----------------------------------------------| 
D|-----------------------------------------------| 
A|-----------------------------------------------| 
E|-6-6-6-6----6-6-6-6----6-6-6-6----6-6-6-6------|

Verse
G|-----------------------------------------------| 
D|-----------------------------------------------| 
A|-----------------------------------------------| 
E|-6-6-6-6----6-6-6-6----5-5-5-5----5-5-5-5------| 

G|-----------------------------------------------| 
D|-----------------------------------------------| 
A|-----------------------------------------------| 
E|-3-3-3-3----3-3-3-3----1-1-1-1----1-1-1-1------| 

Chorus
G|-----------------------------------------------|
D|-----------------------------------------------|
A|--6-6-6-6-6-6-6-6-8--8--8--8--8--8--8--8-------| 
E|-----------------------------------------------| 

G|-----------------------------------------------| 
D|-----------------------------------------------| 
A|-----------------------------------------------|
E|--6-6-6-6-5-5-5-5-3-3-3-3-1-1-1-1--------------|

G|-----------------------------------------------|
D|-----------------------------------------------|
A|--6-6-6-6-6-6-6-6-8--8--8--8--8--8--8--8-------| 
E|-----------------------------------------------|

Break
G|-----------------------------------------------|
D|-----------------------------------------------|
A|-1-1-----3-3-----5-5-----6-6-5-3---------------| 
E|-----------------------------------------------|

Intro		X2
Verse		X2
Intro		X2
Verse		X2
Chorus		X1
Intro		X1
Verse		X2
Chorus		X1
Break		X1
Intro		X1
Verse		X2
Chorus		X2
Break		Sparkle And Fade Out

JASON'S EVERCLEAR TABS - http://members.tripod.com/~panec/