Like A Californian King (bass)
As recorded by Everclear on So Much For The Afterglow
Tabbed by Patrick McFadden (FredDust207@cs.com)

MAIN RIFF 1 
G|-----------------------------------------------|
D|------9----------------------------------------|
A|-9-11---11-9-11-7------------------------------|
E|-----------------------------------------------|

MAIN RIFF 2
G|--------------9-11-----------------------------|
D|--------9-11-----------------------------------|
A|--9-11-----------------------------------------|
E|-----------------------------------------------|

VERSE 1
G|-----------------------|
D|---9-9---9---9-9-9-----|
A|---7-7---7---7-7-7-----|
E|-0-----0---0-----------|

CHORUS 1
I know you think you look so special
G|------------------------------------------------|
D|------------------------------------------------|
A|------------------------------------------------|
E|--2-2-2-2-5-5-5-5-0-0-0-0-0-0-0-0---------------|

CHORUS 2
There is nothing new about you just another self made man     
G|--------------------------------------------------|
D|--------------------------------------------------|
A|--------------------------------------------------|
E|--2--2--2--2--5--5--5--5--0--0--0--0--9--9--9--9--|

There is nothing new that I can see, enjoy it while you can
G|--------------------------------------------------|
D|--------------------------------------------------|
A|--------------------------------------------------|
E|--2--2--2--2--5--5--5--5--0--0--0--0--9--9--9--9--|

I know you think you look so special, 
What makes you think you are so special
G|--------------------------------------|
D|--------------------------------------|
A|--------------------------------------|
E|--2--2--2--2--5--5--5--5--0--0--0--0--|   

G|------------------------------------|
D|------------------------------------|
A|------------------------------------|
E|-8--8--8--8--7--7--7--7--0--0--0--0-|

What makes you think you are unique                   
G|------------------------------------|
D|------------------------------------|
A|------------------------------------|
E|-8--8--8--8--7--7--7--7--0--0--0--0-|

I see you smile and I get angry as I
G|------------------------------------|
D|------------------------------------|
A|------------------------------------|
E|-8--8--8--8--7--7--7--7--5--5--5--5-|

watch you go colossal like a California King
G|--------------------------------------------------|
D|--------------------------------------------------|
A|--------------------------------------------------|
E|-9--9--9--9--2--2--2--2--5--5--5--5--0--0--0--0---|
Last the Open E ring over the Carpetbaggers line 

VERSE 2
G|----------------------------------------|
D|----------------------------------------|
A|----------------------------------------|
E|-0--0--0--0--0--0--0--0--0--0--0--0--0--|
  Palm muted------------------------------
  Repeat as necessary 

VERSE 3 
I will find you in a crowded room I will Knock you off your feet
G|-----------------------------------------------|
D|-----------------------------------------------|
A|-----------------------------------------------|
E|-2---------5----------0----------9-------------|

I will burn you just like teenage love I will eat you just like meat
G|-----------------------------------------------|
D|-----------------------------------------------|
A|-----------------------------------------------|
E|-2---------5----------0----------9-------------|

I will break you into pieces hold you up for all the world to see
G|-----------------------------------------------|
D|-----------------------------------------------|
A|-----------------------------------------------|
E|-2---------5----------0----------9-------------|


Yeah what makes you think you are better than me?
G|-----------------------------------------------|
D|-----------------------------------------------|
A|-----------------------------------------------|
E|-2---------5----------0--0--0--0--0--0--0--0---|

CHORUS 3
What makes you think you're better?
G|------------------------------------|
D|------------------------------------|
A|------------------------------------|
E|-8--8--8--8--7--7--7--7--0--0--0--0-|

What makes you think you are complete?
G|------------------------------------|
D|------------------------------------|
A|------------------------------------|
E|-8--8--8--8--7--7--7--7--0--0--0--0-|

What makes you think you are the only one immune to falling down?
G|------------------------------------------------|
D|------------------------------------------------|
A|------------------------------------------------|
E|-8--8--8--8--7--7--7--7--0--0--0--0--0--0--0--0-|

Why can't you see?
G|------------------------------------------------|
D|------------------------------------------------|
A|------------------------------------------------|
E|-8--8--8--8--7--7--7--7--5--5--5--5--5--5--5--5-|

I see you fall and I get happy I will watch you burn like fire
G|--------------------------------------------------|
D|--------------------------------------------------|
A|--------------------------------------------------|
E|-9--9--9--9--2--2--2--2--5--5--5--5--5--5--5--5---|

I will watch you burn like a Californian King
G|--------------------------------------|
D|--------------------------------------|
A|--------------------------------------|
E|-5--5--5--5--5--5--5--5--5--5--5--0---|

Song Order
Main Riff		X3
Main Riff 2		X1
Main Riff		X1
Verse			X1
Main Riff		X1
Verse			X1
Main Riff		X1
Verse			X1
Main Riff 2		X1
Chorus 1		X1
Main Riff		X1
Main Riff 2		X1
Verse			X1
Main Riff		X1
Verse			X1
Main Riff		X1
Verse			X1
Main Riff 2		X1
Chorus 2		X1
Main Riff		X1
Verse 2		X1
Verse 3		X1
Chorus 3		X1
Main Riff (2)	Fade Out

JASON'S EVERCLEAR TABS - http://members.tripod.com/~panec/