"Local God" (Bass)
As Recorded by Everclear on the "Romeo & Juliet" Soundtrack
Tabbed By Ashton Bailey (ashton_bailey@hotmail.com)

Key:
pm = palm mute
\ = slide up towards the neck
/ = slide down towards the body
fb = feedback
h = hammer
b = bend string
r = ring (let string ring)

Intro (Guitar)

Main Verse
G|-------------------|
D|-------------------|
A|-------------------|
E|--7-7-7-7---8-8-8--|
       B        C

Interlude
G|---------------------------------------|
D|---------------------------------------|
A|--2-2-2-2-----3-3-3--------------------|
E|--------------------3-3-3-3-----2-2-2--|
       B          C      G          F#

Chorus
G|-------------------------------------------------------------------|
D|-------------------------------------------------------------------|
A|-------------------------------------------------------------------|
E|--0-0-0-0-0-0-0-0-0-0-0-0-0-0-0-0-3-3-3-3-3-3-3-3-3-3-3-3-3-3-3-3--|
                     Em                             G

The 2 end chords on the final part of the chorus are Bb & F#

That's it, listen to the cd, improvise if needed.

JASON'S EVERCLEAR TABS - http://members.tripod.com/~panec/