"Loser Makes Good" (Bass)
As recorded by Everclear on "World of Noise"
Tabbed by Ashton Bailey (ashton_bailey@hotmail.com) and Joel Zimmerman (cheesy_poofs@usa.net)

VERSION 1 - Tabbed by Ashton Bailey

Intro
G|-------------------------------|
D|-------------------------------|
A|--3-----------------3----------|
E|-----------3----------------3--|
    C        G        C       G

G|-------------------------------|
D|-------------------------------|
A|--3-----------------3----------|
E|-----------3----------------3--|
    C        G        C       G
    I hate waking up, it means that I have to die again tonight

G|-------------------------------|
D|-------------------------------|
A|-------------------------------|
E|--1-------0--------1--------0--|
    F       Em       F       Em
   35 years old and I'm still sleeping outside

G|-------------------------------|
D|-------------------------------|
A|--3-----------------3----------|
E|-----------3----------------3--|
    C        G        C       G
   Yeah I think I know your face, I don't want to know your name

G|------------------------------------------------|
D|------------------------------------------------|
A|------------------------------------------------|
E|--1-------0--------1--------0--------1-------0--|
    F       Em       F        Em       F       Em
   I won't give in, I'm not like that, I won't give in

Main Verse
G|-----------------------------------|
D|-----------------------------------|
A|--3-3-3-3---------3-3-3-3----------|
E|----------3-3-3-3---------3-3-3-3--|
       C       G       C       G

G|-----------------------------------|
D|-----------------------------------|
A|--3-3-3-3---------3-3-3-3----------|
E|----------3-3-3-3---------3-3-3-3--|
       C       G       C       G

G|-------------------------------|
D|-------------------------------|
A|--3-----------------3----------|
E|-----------3----------------3--|
    C        G        C       G
     You say it's Christmas Eve, that don't mean nothing to me

G|-------------------------------|
D|-------------------------------|
A|-------------------------------|
E|--1-------0--------1--------0--|
    F       Em       F       Em
     Just another fucked up day, just another waste of time

G|-------------------------------|
D|-------------------------------|
A|--3-----------------3----------|
E|-----------3----------------3--|
    C        G        C       G
    You wonder why I live like this, man you just won't understand

G|-------------------------------------------------------|
D|-------------------------------------------------------|
A|-------------------------------------------------------|
E|--1--------0--------1--------0--------1-------4-4-4-4--|
      F       Em       F       Em       F        Ab
    I won't give in, I'm not like that, yeah I won't give in

Chorus
G|----------------------------------|
D|----------------------------------|
A|--3--3-3-3-------5--5-5-5---------|
E|-------------4--------------1--1--|
        C      Ab     D         F

G|----------------------------------|
D|----------------------------------|
A|--3--3-3-3-------5--5-5-5---------|
E|-------------4--------------1--1--|
        C      Ab     D         F

G|--------------------------------------------------------|
D|--------------------------------------------------------|
A|--3--3--3--------5--5--5--------8--8--8-----------------|
E|------------------------------------------------4----3--|
       C              D              F           Ab    G

Main Verse
G|-----------------------------------|
D|-----------------------------------|
A|--3-3-3-3---------3-3-3-3----------|
E|----------3-3-3-3---------3-3-3-3--|
       C       G       C       G

G|-----------------------------------|
D|-----------------------------------|
A|--3-3-3-3---------3-3-3-3----------|
E|----------3-3-3-3---------3-3-3-3--|
       C       G       C       G

G|-------------------|
D|-------------------|
A|--3-3-3-3----------|
E|----------3-3-3-3--|
       C       G
  You smart-ass college fuck

G|-------------------|
D|-------------------|
A|--3-3-3-3----------|
E|----------3-3-3-3--|
       C       G
  Act like you think you're tall

G|-------------------|
D|-------------------|
A|-------------------|
E|--1-1-1-1-0-0-0-0--|
       F       Em

   I was just like you
G|-------------------|
D|-------------------|
A|-------------------|
E|--1-1-1-1-0-0-0-0--|
       F       Em

More Pride than you could know

G|-------------------|
D|-------------------|
A|--3-3-3-3----------|
E|----------3-3-3-3--|
       C       G
    You think you pity me

G|-------------------|
D|-------------------|
A|--3-3-3-3----------|
E|----------3-3-3-3--|
       C       G
   Hey I'll kick your ass if you pity me

G|-------------------|
D|-------------------|
A|-------------------|
E|--1-1-1-1-0-0-0-0--|
       F       Em
    I won't give in

G|-------------------|
D|-------------------|
A|-------------------|
E|--1-1-1-1-0-0-0-0--|
       F       Em
     I'm not like that

G|-------------------|
D|-------------------|
A|-------------------|
E|--1-1-1-1-4-4-4-4--|
       F       Ab
No I won't give in to you


Chorus
G|----------------------------------|
D|----------------------------------|
A|--3--3-3-3-------5--5-5-5---------|
E|-------------4--------------1--1--|
        C      Ab     D         F

G|----------------------------------|
D|----------------------------------|
A|--3--3-3-3-------5--5-5-5---------|
E|-------------4--------------1--1--|
        C      Ab     D         F

G|----------------------------------|
D|----------------------------------|
A|--3--3-3-3-------5--5-5-5---------|
E|-------------4--------------1--1--|
        C      Ab     D         F

G|--------------------------------------------------------|
D|--------------------------------------------------------|
A|--3--3--3--------5--5--5--------8--8--8-----------------|
E|------------------------------------------------4----3--|
       C              D              F           Ab    G

Outro
G|-----------------------------------|
D|-----------------------------------|
A|--3-3-3-3---------3-3-3-3----------|
E|----------3-3-3-3---------3-3-3-3--|
       C       G       C       G

G|-----------------------------------|
D|-----------------------------------|
A|--3-3-3-3---------3-3-3-3----------|
E|----------3-3-3-3---------3-3-3-3--|
       C       G       C       G
    Just go away             Just go away

G|--------------------|
D|--------------------|
A|--3-----------------|
E|-----------3--------|
    C        G

G|--------------------|
D|--------------------|
A|--3-----------------|
E|-----------3--------|
    C        G
       You stupid college boy

G|--------------------|
D|--------------------|
A|--------------------|
E|--1--------0--------|
    F       Em
   act like you think you're tall

G|--------------------|
D|--------------------|
A|--------------------|
E|--1--------0--------|
    F       Em
   I won't give in, I'm not like that

G|---------------|
D|---------------|
A|---------------|
E|--1--------4~--|
    F        Ab
  I won't give in

VERSION 2 - Tabbed by Joel Zimmerman

If you find and mistake/correstions/whatever or have any 
comments/complaints/whatever please E-mail me at cheesy_poofs@usa.net. 

Great song…one of Everclear's best, and it's a pretty easy bass part 
too! Standard tuning. There is no bass in the starting. You start with… 

VERSE: "I think I know your face…" 
G|------------------------------- 
D|------------------------------- 
A|-3-3-3-3--------3-3-3-3-------- 
E|--------3-3-3-3--------3-3-3-3- 

Play the verse once. Then skip pre-chorus 1 the first time and go 
straight to Pre-chorus 2. 

PRE-CHORUS 1: 
G|--------------------------------- 
D|--------------------------------- 
A|--------------------------------- 
E|-1-1-1-1-0-0-0-0-1-1-1-1-0-0-0-0- 

PRE-CHORUS 2: "I won't give in…" 
G|------------------------------------------------- 
D|------------------------------------------------- 
A|------------------------------------------------- 
E|-1-1-1-1-0-0-0-0-1-1-1-1-0-0-0-0-1-1-1-1-4-4-4-4- 
Play Pre-chorus 2 once and then play this… 

FILL: 
G|----------5---------5-- 
D|-----0h3-5------0h3--5- 
A|-3----------3---------- 
E|----------------------- 

Play the Fill twice and then go back to the start and play everything 
in the normal order, which is: Verse x1, Pre-chorus 1 x1, Verse x1, 
Pre-chorus 2 x1 and then you play the chorus; which is broken up into 
two main parts: 

CHORUS part1: 
G|------------------------------ 
D|------------------------------ 
A|-3-3-3-3-------5-5-5-5-------- 
E|--------4-4-4-4-------1-1-1-1- 
CHORUS part2: 
G|---------------------------1--0- 
D|-------------------------------- 
A|-3-3-3-3-3-3-3-3---------------- 
E|----------------4-4-4-4--------- 

You play Chorus part1 twice and then part2 once and then the Fill. 
After the Fill, play the Verse and the Pre-choruses in regular order 
and then you're at the Chorus again. This time, play Chorus part1 three 
times and then part2 once. Then play the fill twice and end on the main 
note (A|-3). That's all!   


JASON'S EVERCLEAR TABS - http://members.tripod.com/~panec/