Malevolent (bass)
As recorded by Everclear on World Of Noise
Tabbed by Patrick McFadden (JackSexy11@aol.com)
Based on a tab by Katy at Cross-Eyed and Smilin' 

Intro/verse 
G|------12----11-----------------|-----9---8---------7----| 
D|-0h10----10----10h12p10-0-12-0-|-0h7---7---7h9p7-0-0-0--| 
A|-------------------------------|------------------------| 
E|-------------------------------|------------------------| 

Chorus 
G|-12-12---11-|-12-12---11-|-12-12---11-| 
D|-10-10-0-12-|-10-10-0-12-|-10-10-0-12-| 
A|------------|------------|------------| 
E|------------|------------|------------| 

When he goes on just keep playing that B and 5th. 

End 
G|-----6---7---6h7-|-----6---7---6h7-| 
D|-0h7---7---7-----|-0h7---7---7-----| 
A|-----------------|-----------------| 
E|-----------------|-----------------|

JASON'S EVERCLEAR TABS - http://members.tripod.com/~panec/