Nehalem (bass)
As recorded by Everclear on "Sparkle and Fade"
Tabbed by Marty O'Malley (Bassistwithoutcause@everclearfanatic.com)

verses same as guitar 
G|----------------------------------|
D|----------------------------------|
A|---------------------4-4----------|
E|-0-0-5-5-7-7-5-5-4-4-----2-2-5-5--|

bass solo
G|-------------------------------------------------------------------|
D|-------------------------------------------------------------------|
A|----------4-4-4-4--------------------------------------------------|
E|--4-4-4-4---------2-2-2-2-5-5-5-5-0-0-0-0-5-5-5-5-7-7-7-7-5-5-5-5--|

"want me to go"
G|-------------------------------------|
D|-------------------------------------|
A|-------------------------------------|
E|-0-0-0-0--5-5-5-5--7-7-7-7--8-8-8-8--|

JASON'S EVERCLEAR TABS - http://members.tripod.com/~panec/