Nervous & Weird (bass)
As recorded by Everclear on "World of Noise" LP
Tabbed by Marty O'Malley (Bassistwithoutcause@everclearfanatic.com)

verses/perchorus/guitar solo
G|----------------------------|
D|----------3-----------------|
A|-------------------3-0-3-0--|
E|-0-3-0---0-3--0-------------|  repeat

chorus:  "alive in the day"
G|-----------------------------|
D|-----------------------------|
A|-----3h2-2-----3h2-2---------|
E|-3-3-------3-3-------3-3-----|

JASON'S EVERCLEAR TABS - http://members.tripod.com/~panec/