New Blue Champion
As recorded by Everclear on Slow-Motion Daydream
Transcribed by Will Donovan (everclear792@msn.com) and J.Barx (jbarx@msn.com)

VERSION 1: tabbed by Will Donovan

 Electric Guitar

e------4----------6------------9
b--------4---------6---------9--
g---5--------7-----------10-----    x2
d-6--------8----------11-------- 
a-------------------------------
e-------------------------------

Acoustic Guitar

e----------------------------------
g------------------4-4--4-4-4-4-6-6
d-6-6---6-4-4-4---4-4--4-4-4-4-6-6
a-6-6---6-4-4-4---2-2--2-2-2-2-4-4
e-4-4---4-2-2-2-------------------
I dont Wanna hear you say your sorry 
I dont wanna hear you say we can start all over again
   I know you must think that im stupid
 well I might be stupid for the rest of my life 
but Iíll never be stupid for you again
I Just Want It All To Go Away

Electric Only
e---------------------------------------------------------------------
b---------------------------------------------------------------------
g---------------------------------------------------------------------
d-6-6-6-6-6-6-6--4-4-4-4-4-4--9-9-9-9-9-9-9-11-11-11-11-11-11-11-
a-6-6-6-6-6-6-6--4-4-4-4-4-4--9-9-9-9-9-9-9-11-11-11-11-11-11-11-
e-4-4-4-4-4-4-4--2-2-2-2-2-2--7-7-7-7-7-7-7-9--9--9--9--9--9--9---
Yeah
Just go away
Yeah 

e--------------------------------------------------------------------
b--------------------------------------------------------------------
g---------------------------------------------------------------------
d-6-6-6-6-6-6-6-4-4-4-4-4-4-9-9-9-9-9-9-9-11-11-11-11-11-11-11-
a-6-6-6-6-6-6-6-4-4-4-4-4-4-9-9-9-9-9-9-9-11-11-11-11-11-11-11-
e-4-4-4-4-4-4-4-2-2-2-2-2-2-7-7-7-7-7-7-7-9--9--9--9--9--9--9---
I can see the light above me 
I hear the sound of a brand song
I donít wanna hear your preaches cause I know whats right
I know whats wrong

I can see the light above me
I hear the sound of a brand new day 
Im not gonna settle for less 
And I donít think things Are ever gonna change 
I just want it all to go away

Electric Guitar
e------4----------6------------9
b--------4---------6---------9--
g---5--------7-----------10-----     x5
d-6--------8----------11-------- 
a-------------------------------
e-------------------------------

Acoustic Guitar
e----------------------------------
g------------------4-4--4-4-4-4-6-6
d-6-6---6-4-4-4---4-4--4-4-4-4-6-6
a-6-6---6-4-4-4---2-2--2-2-2-2-4-4
e-4-4---4-2-2-2-------------------
I donít wanna hear about you damage
I donít wanna hear you say
That you think Im damaged too
becuause i know you know that 
The damage in me is from the horrible things you say and do
I know that the damage in me 
comes from the damage in you

I just want it all to go away
(everything stops)

e----------------------------------------------------------------
b----------------------------------------------------------------
g-5-5-5-5-5-5-5--3-3-3-3-3-3--8-8-8-8-8-8-8-10-10-10-10-10-10-10-
d-6-6-6-6-6-6-6--4-4-4-4-4-4--9-9-9-9-9-9-9-11-11-11-11-11-11-11-
a-6-6-6-6-6-6-6--4-4-4-4-4-4--9-9-9-9-9-9-9-11-11-11-11-11-11-11-
e-4-4-4-4-4-4-4--2-2-2-2-2-2--7-7-7-7-7-7-7-9--9--9--9--9--9--9--
I can see the light above me 
I hear the sound of a brand new song
I donít wanna hear your reasons couse I know what right I know whats wrong
I can see the light above me, hear the sound of a brand new day 
Im not gonna settle for less and I donít think things are ever gonna change

e--------------------------------------------------------------------
b---------------------------------------------------------------------
g---------------------------------------------------------------------
d-6-6-6-6-6-6-6--4-4-4-4-4-4--9-9-9-9-9-9-9-11-11-11-11-11-11-11-
a-6-6-6-6-6-6-6--4-4-4-4-4-4--9-9-9-9-9-9-9-11-11-11-11-11-11-11-
e-4-4-4-4-4-4-4--2-2-2-2-2-2--7-7-7-7-7-7-7-9--9--9--9--9--9--9---
Yeah
Just go away
Yeah 
I dont wanna talk about it
I dont wanna hear your lies
I dont wanna talk about it
And I dont understand why you just do not realize

E-----------------
B-----------------
g-13-11-10-8-5-6-4
D-----------------
A-----------------
E-----------------

Electric Guitar
e------4----------6------------9
b--------4---------6---------9--
g---5--------7-----------10-----
d-6--------8----------11-------- 
a-------------------------------
e-------------------------------

Acoustic Guitar
e-----------------------------------
b-----------------------------------
g------------------4-4--4-4-4-4-6-6
d-6-6---6-4-4-4---4-4--4-4-4-4-6-6
a-6-6---6-4-4-4---2-2--2-2-2-2-4-4
e-4-4---4-2-2-2--------------------
I dont Wanna hear you say your sorry 
I dont wanna hear you say we can start all over again
Woooooooaaahhhhhh.......

e---------------------------------------------------------------------
b---------------------------------------------------------------------
g---------------------------------------------------------------------
d-6-6-6-6-6-6-6--4-4-4-4-4-4--9-9-9-9-9-9-9-11-11-11-11-11-11-11-
a-6-6-6-6-6-6-6--4-4-4-4-4-4--9-9-9-9-9-9-9-11-11-11-11-11-11-11-
e-4-4-4-4-4-4-4--2-2-2-2-2-2--7-7-7-7-7-7-7-9--9--9--9--9--9--9---
I can see the light above me 
I hear the sound of a brand song
I donít wanna hear your preaches cause I know whats right
I know whats wrong

I can see the light above me
I hear the sound of a brand new day 
I can picture the lies without you 
And I donít think things Are ever gonna change 
I Just Want It All To Go Away

Acoustic Guitar
e-----------------------------------
b-----------------------------------
g------------------4-4--4-4-4-4-6-6
d-6-6---6-4-4-4---4-4--4-4-4-4-6-6
a-6-6---6-4-4-4---2-2--2-2-2-2-4-4
e-4-4---4-2-2-2--------------------
I Can see the light above me
I hear the sound of brand new song
I donít wanna hear your reasons 
Cause I know whats right
I know whats wrong 
 
-Will

VERSION 2: Tabbed by J. Barx

Allright, boys and girls this is my first real crack at tablature, 
but I'm pretty sure this one is close.  Enjoy.

These are just the basic components of the song, you can do the math.

By the way, tuning is standard, but a little flat to match the album.

INTRO / VERSE (use chorus with overdrive and a touch of tremolo)

INTRO / VERSE - picking 
----------------------|
--------------2-------|
------4-/-6---4-------| 
--6---4-/-6---4-------| 
--6---2-/-4---2-------| 
--4-------------------| 
  G#  B   C#  B                                       

BRIDGE - little more crunch  
----------------------|
----------------------| 
----------4---6-------| 
--6---4---4---6-------| 
--6---4---2---4-------| 
--4---2---------------| 
  G#  F#  B   C#                                

CHORUS - full crunch                     
--------------------|----------------- 
--------------------|----------------- 
----------6---------|----4---6-------- 
--6---4---6---4-----|----4---6---4---- 
--6---4---4---4-----|----2---4---4---- 
--4---2-------2-----|------------6---- 
  G#  F#  C#  F#  x3     B   C#  G#     

  BRIEF SOLO BREAK - with 1/4 bends and delay...? 
----------------------------------- 
----------------------------------- 
--13--11--10--8--6--5--6--5-------- 
----------------------------------- 
----------------------------------- 
-----------------------------------

JASON'S EVERCLEAR TABS - http://members.tripod.com/~panec/