I Will Buy You A New Life (Bass)
As recorded by Everclear on "So Much for the Afterglow"
Tabbed by Ashton Bailey (ashton_bailey@hotmail.com)

   Intro/ Bridge Riff
    V V V V ^ V V       V V V V ^ V V
G|-------------------------------------|
D|-------------------------------------|
A|-------------------------------------|
E|--3-3-3-3-3-3-3-------3-3-3-3-3-3-3--|
          G                   G
                   Ohh

     V V V V ^ V V       V V V V ^ V V
G|-------------------------------------|
D|-------------------------------------|
A|-------------------------------------|
E|--3-3-3-3-3-3-3-------3-3-3-3-3-3-3--|
          G                   G
                 Yeah

Main Verse 1
G|--------------------------------------|
D|--------------------------------------|
A|-----------2-2-2-2-----------2-2-2-2--|
E|--3-3-3-3-----------3-3-3-3-----------|
       G       B7        G        B7

G|--------------------------------------|
D|--------------------------------------|
A|-----------2-2-2-2--3-3-3-3-----------|
E|--3-3-3-3--------------------0-0-0-0--|
       G       B7        C        Em

Chorus
G|--------------------------------------|
D|--------------------------------------|
A|-----------2-2-2-2-----------3-3-3-3--|
E|--3-3-3-3-----------0-0-0-0-----------|
       B        B7       Em       C

JASON'S EVERCLEAR TABS - http://members.tripod.com/~panec/