"New York Times" Guitar Tab
As Recorded By Everclear on "Slow Motion Daydream"
Tabbed By Ashton Bailey (dingleberry666@hotmail.com) & Ryan Carlson 
(rwcarlson@surfbest.net), JR (soggypeaches@yahoo.com) and Hugh Yik (MMHSTEAM@hotmail.com)

VERSION 1 - Tabbed by Ashton Bailey and Ryan Carlson

Key:
pm = palm mute
\ = slide up towards the neck
/ = slide down towards the body
fb = feedback
h = hammer
b = bend string
r = ring (let string ring)
H = Harmonics
~ = hold note
X = pick muted string

   Intro                       (slow melodic strumming)
e|-----------------------------------------------------------------------------------|
B|-----------------------------------------------------------------------------------|
G|--7-7-7-7-7-7-7-7-6-6-6-6-6-6-6-6-4-4-4-4-4-4-4-4----------------------------------|
D|--7-7-7-7-7-7-7-7-6-6-6-6-6-6-6-6-4-4-4-4-4-4-4-4-5-5-5-5-5-5-5-5-5-5-5-5-5-5-5-5--|
A|--5-5-5-5-5-5-5-5-4-4-4-4-4-4-4-4-2-2-2-2-2-2-2-2-5-5-5-5-5-5-5-5-5-5-5-5-5-5-5-5--|
E|--------------------------------------------------3-3-3-3-3-3-3-3-3-3-3-3-3-3-3-3--|
           D               Db              B                       G

   Main verse
e|-------------------------------------------|
B|-------------------------------------------|
G|--7-7-7-7-7-7-7-7--------------------------|
D|--7-7-7-7-7-7-7-7----------------------3---|
A|--5-5-5-5-5-5-5-5----/4----/5----/2--------|
E|------------------/2----/3----\0----/1-----|
    (--Palm Mute--)
           D          F#    G     Em    F

Makes no sense to me
Livin' in a different world when I heard the news
Keep on having the same bad dream
Yeah and it makes me want to hurt all the people who have done this thing to 
you

   Pre-Chorus
e|-------------------------------------------------------------------|
B|-------------------------------------------------------------------|
G|--7-7-7-7-7-7-7-7-----------------4-4-4-4-4-4-4-4------------------|
D|--7-7-7-7-7-7-7-7-7-7-7-7-7-7-7-7-4-4-4-4-4-4-4-4-5-5-5-5-5-5-5-5--|
A|--5-5-5-5-5-5-5-5-7-7-7-7-7-7-7-7-2-2-2-2-2-2-2-2-5-5-5-5-5-5-5-5--|
E|------------------5-5-5-5-5-5-5-5-----------------3-3-3-3-3-3-3-3--|
    (---------------------------Palm Mute-------------------------)
           D                A              B               G

See your face
See your eyes
Read all about you in the New York Times
See your life
See you smile
Read the words about you and it makes me crazy

   Verse 2
e|-------------------------------------------|
B|-------------------------------------------|
G|--7-7-7-7-7-7-7-7--------------------------|
D|--7-7-7-7-7-7-7-7-----------------------3--|
A|--5-5-5-5-5-5-5-5----/4----/5----/2--------|   I'm unsure about the last 2 notes
E|------------------/2----/3----\0----/1-----|
    (--Palm Mute--)
           D          F#    G     Em    F

Makes no sense to me
This eye for an eye thing it has gone too far
God don't hate them but it does not hurt inside
I would like to believe we can learn from this and maybe someday we can make 
this right

   Chorus
e|---------------------|
B|---------------------|
G|---------------------|
D|--2-2-4-4-4-5-5-5-5--|
A|--2-2-4-4-4-5-5-5-5--|
E|--0-0-2-2-2-3-3-3-3--|
     Em  F#      G

Wanna believe in this world
Wanna believe in this life
Wanna believe in a world that does not seem real when you read between the 
lines

  Pre-Chorus
e|-------------------------------------------------------------------|
B|-------------------------------------------------------------------|
G|--7-7-7-7-7-7-7-7-----------------4-4-4-4-4-4-4-4------------------|
D|--7-7-7-7-7-7-7-7-7-7-7-7-7-7-7-7-4-4-4-4-4-4-4-4-5-5-5-5-5-5-5-5--|
A|--5-5-5-5-5-5-5-5-7-7-7-7-7-7-7-7-2-2-2-2-2-2-2-2-5-5-5-5-5-5-5-5--|
E|------------------5-5-5-5-5-5-5-5-----------------3-3-3-3-3-3-3-3--|
    (---------------------------Palm Mute-------------------------)
           D                A              B               G

See your face
See you smile
Read all about you in my New York Times
See your eyes
See your life
When I think about you it just makes me crazy

   Chorus
e|---------------------|
B|---------------------|
G|---------------------|
D|--2-2-4-4-4-5-5-5-5--|
A|--2-2-4-4-4-5-5-5-5--|
E|--0-0-2-2-2-3-3-3-3--|
     Em  F#      G

Wanna believe in this world
Wanna believe in this life
Wanna believe in a world that does not seem real when you read the New York 
Times

end on D

VERSION 2 - Tabbed by JR

ALL STRINGS TUNED DOWN A HALF STEP

(INTRO PLAY 2 TIMES)
GUITAR 1
Eb-0-0-0-0-0-0-0-0-0-0-0-0-0-0-0-0-0-0-0-0-0-0-0-0-0-0-0-0-0-0-0-0
Bb-9-9-9-9-9-9-9-9-7-7-7-7-7-9-7-7-5-5-5-5-5-7-5-5-2-2-2-2-2-0-0-2
Gb----------------------------------------------------------------
Db----------------------------------------------------------------
Ab----------------------------------------------------------------
Eb----------------------------------------------------------------
 |
Eb------------------------------------------------------------------------- 
Bb------------------------------------------------------------------------- 
Gb-9-9-9-9-9-9-9-9--------------------------------------------------------- 
Db-9-9-9-9-9-9-9-9-9-9-9-9-9-9-9-9-11-11-11-11-11-11-11-11-7-7-7-7-7-7-7-7- 
Ab-7-7-7-7-7-7-7-7-9-9-9-9-9-9-9-9-11-11-11-11-11-11-11-11-7-7-7-7-7-7-7-7- 
Eb-----------------7-7-7-7-7-7-7-7-9--9--9--9--9--9--9--9--5-5-5-5-5-5-5-5- 


Verse 1: (GUITAR 1 ONLY)
Eb----------------------------------- 
Bb----------------------------------- 
Gb----------------------------------- 
Db----------------------------------- 
Ab-----------------5-5/11-11-\7-7/9-9 
Eb-0r--------------7-7/9--9--\5-5/7-7
It Makes No Sense To Me 
I was living In A Different World When I Heard the News 
I Keep on having the same bad dreams 
And It Makes me Wanna Hurt All The People Who Have Done This Thing To You

 

Chorus 1: 

GUITAR 1
Eb-0-0-0-0-0-0-0-0-0-0-0-0-0-0-0-0-0-0-0-0-0-0-0-0-0-0-0-0-0-0-0-0
Bb-9-9-9-9-9-9-9-9-7-7-7-7-7-9-7-7-5-5-5-5-5-7-5-5-2-2-2-2-2-0-0-2
Gb----------------------------------------------------------------
Db----------------------------------------------------------------
Ab----------------------------------------------------------------
Eb----------------------------------------------------------------
 |
Eb------------------------------------------------------------------------- 
Bb------------------------------------------------------------------------- 
Gb-9-9-9-9-9-9-9-9--------------------------------------------------------- 
Db-9-9-9-9-9-9-9-9-9-9-9-9-9-9-9-9-11-11-11-11-11-11-11-11-7-7-7-7-7-7-7-7- 
Ab-7-7-7-7-7-7-7-7-9-9-9-9-9-9-9-9-11-11-11-11-11-11-11-11-7-7-7-7-7-7-7-7- 
Eb-----------------7-7-7-7-7-7-7-7-9--9--9--9--9--9--9--9--5-5-5-5-5-5-5-5- 
When I See Your Face 
I Can See You Smile 
I read all about in the New York Times 
When I See Your Eyes I Can See Your Life 
When I think about what happened It just makes me Crazy 

Verse 2: (GUITAR 1 ONLY)
Eb------------------------------------- 
Bb------------------------------------- 
Gb------------------------------------- 
Db------------------------------------- 
Ab-----------------5-5/11-11-\7-7/9-9-2 
Eb-0r--------------7-7/9--9--\5-5/7-7-0 
This makes no sense to me 
This eye for an eye thing It has gone too far 
I dont know anyone who does not hurt inside 
I would Like To Believe we could learn from this 
And maybe some day we can make things right. 

CHORUS 2: 
GUITAR 1
Eb-0-0-0-0-0-0-0-0
Bb-5-5-5-5-5-5-5-5
Gb----------------
Db----------------
Ab----------------
Eb----------------
 |
Eb---------------- 
Bb---------------- 
Gb---------------- 
Db-4-4--6-6-6--7-7 
Ab-4-4--6-6-6--7-7 
Eb-2-2--4-4-4--5-5 
I Wanna Believe In This World 
I Wanna Believe In This Life 
I Wanna Believe In a World That does not seem real when you read between the lines 

Chorus 1:

GUITAR 1
Eb-0-0-0-0-0-0-0-0-0-0-0-0-0-0-0-0-0-0-0-0-0-0-0-0-0-0-0-0-0-0-0-0
Bb-9-9-9-9-9-9-9-9-7-7-7-7-7-9-7-7-5-5-5-5-5-7-5-5-2-2-2-2-2-0-0-2
Gb----------------------------------------------------------------
Db----------------------------------------------------------------
Ab----------------------------------------------------------------
Eb----------------------------------------------------------------
 | 
Eb------------------------------------------------------------------------- 
Bb------------------------------------------------------------------------- 
Gb-9-9-9-9-9-9-9-9--------------------------------------------------------- 
Db-9-9-9-9-9-9-9-9-9-9-9-9-9-9-9-9-11-11-11-11-11-11-11-11-7-7-7-7-7-7-7-7- 
Ab-7-7-7-7-7-7-7-7-9-9-9-9-9-9-9-9-11-11-11-11-11-11-11-11-7-7-7-7-7-7-7-7- 
Eb-----------------7-7-7-7-7-7-7-7-9--9--9--9--9--9--9--9--5-5-5-5-5-5-5-5- 
When I See Your Face 
I Can See You Smile I
read all about in my New York Times 
When I See Your Eyes I Can See Your Life 
When I Read the words about you It just makes me Crazy 

CHORUS 2: 
GUITAR 1
Eb-0-0-0-0-0-0-0-0
Bb-5-5-5-5-5-5-5-5
Gb----------------
Db----------------
Ab----------------
Eb----------------
 |
Eb---------------- 
Bb---------------- 
Gb---------------- 
Db-4-4--6-6-6--7-7 
Ab-4-4--6-6-6--7-7 
Eb-2-2--4-4-4--5-5 
I Wanna Believe In This World 
I Wanna Believe In This Life 
I Wanna Believe In a World That does not seem real when you read between the lines 

Middle Part (GUITAR 1 ONLY)
Eb-0--0--0--0--0 
Bb-0--0--0--0--0 
Gb-1--8--X--6--8 
Db-2--9--11-7--9 
Ab-2--9--11-7--9 
Eb-0--7--9--5--7 
Oh Gotta Read Between The Lines 
Woah-oh-oh-oh 
You Gotta Read Between The Lines 
Woah-oh Woah 
Yeah I really wanna believe i can make thing right 


GUITAR 1
Eb-0-0-0-0-0-0-0-0
Bb-5-5-5-5-5-5-5-5
Gb----------------
Db----------------
Ab----------------
Eb----------------
 |
Eb---------------- 
Bb---------------- 
Gb---------------- 
Db-4-4--6-6-6--7-7 
Ab-4-4--6-6-6--7-7 
Eb-2-2--4-4-4--5-5 
pm ............... 
I wanna believe I can learn how to feel alright inside 

GUITAR 1
Eb-0-0-0-0-0-0-0-0
Bb-5-5-5-5-5-5-5-5
Gb----------------
Db----------------
Ab----------------
Eb----------------
 |
Eb---------------- 
Bb---------------- 
Gb---------------- 
Db-4-4--6-6-6--7-7 
Ab-4-4--6-6-6--7-7 
Eb-2-2--4-4-4--5-5 
I wanna Believe I can learn how to make things right 
OH 

CHORUS 2: 
GUITAR 1
Eb-0-0-0-0-0-0-0-0
Bb-5-5-5-5-5-5-5-5
Gb----------------
Db----------------
Ab----------------
Eb----------------
 |
Eb---------------- 
Bb---------------- 
Gb---------------- 
Db-4-4--6-6-6--7-7 
Ab-4-4--6-6-6--7-7 
Eb-2-2--4-4-4--5-5 
I Wanna Believe In This World I Wanna Believe In This Life 
I Wanna Believe In a World That does not seem real 
when you read The New York Times 

Chorus 1: 
GUITAR 1
Eb-0-0-0-0-0-0-0-0-0-0-0-0-0-0-0-0-0-0-0-0-0-0-0-0-0-0-0-0-0-0-0-0
Bb-9-9-9-9-9-9-9-9-7-7-7-7-7-9-7-7-5-5-5-5-5-7-5-5-2-2-2-2-2-0-0-2
Gb----------------------------------------------------------------
Db----------------------------------------------------------------
Ab----------------------------------------------------------------
Eb----------------------------------------------------------------
 |
Eb------------------------------------------------------------------------- 
Bb------------------------------------------------------------------------- 
Gb-9-9-9-9-9-9-9-9--------------------------------------------------------- 
Db-9-9-9-9-9-9-9-9-9-9-9-9-9-9-9-9-11-11-11-11-11-11-11-11-7-7-7-7-7-7-7-7- 
Ab-7-7-7-7-7-7-7-7-9-9-9-9-9-9-9-9-11-11-11-11-11-11-11-11-7-7-7-7-7-7-7-7- 
Eb-----------------7-7-7-7-7-7-7-7-9--9--9--9--9--9--9--9--5-5-5-5-5-5-5-5- 
When I See Your Face 
I Can See You Smile I read all about in my New York Times 
When I See Your Eyes I Can See Your Life 
When I Read the words about you 
It just makes me Crazy 

When I Close My Eyes 
You Seem So Alive 
When I think about what happened 
it makes me wanna believe I can make things right 

CHORUS 2: 
GUITAR 1
Eb-0-0-0-0-0-0-0-0
Bb-5-5-5-5-5-5-5-5
Gb----------------
Db----------------
Ab----------------
Eb----------------
 |
Eb---------------- 
Bb---------------- 
Gb---------------- 
Db-4-4--6-6-6--7-7
Ab-4-4--6-6-6--7-7
Eb-2-2--4-4-4--5-5 
I wanna believe 
I wanna believe 
I wanna believe 
OH 

GUITAR 1
Eb-0-0-0-0-0-0-0-0
Bb-5-5-5-5-5-5-5-5
Gb----------------
Db----------------
Ab----------------
Eb----------------
 |
Eb---------------- 
Bb---------------- 
Gb---------------- 
Db-4-4--6-6-6--7-7 
Ab-4-4--6-6-6--7-7 
Eb-2-2--4-4-4--5-5 
I Wanna Believe In This World 
I Wanna Believe In This Life 
I Wanna Believe In a World That does not seem real 
when you read The New York Times 

GUITAR 1
Eb-0~
Bb-5~
Gb--
Db--
Ab--
Eb--
 |
Eb--- 
Bb--- 
Gb-9~ 
Db-9~
Ab-7~
Eb---
let this ring out	  

VERSION 3 - Tabbed by Hugh Yik

New York Times by Everclear (Art live acoustic 'the one from Alex site')

--INTRO(Strumming)/CHORUS PART 1(Palm mute chords and continue "G" with regular strumming)--
    D               Db              Bm              G
e|-----------------------------------------------------------------------------------|
B|-----------------------------------------------------------------------------------|
G|--7-7-7-7-7-7-7-7-7-7-7-7-7-7-7-7-4-4-4-4-4-4-4-4----------------------------------|
D|--7-7-7-7-7-7-7-7-7-7-7-7-7-7-7-7-4-4-4-4-4-4-4-4-5-5-5-5-5-5--------5----------5--|
A|--5-5-5-5-5-5-5-5-4-4-4-4-4-4-4-4-2-2-2-2-2-2-2-2-5-5-5-5-5-5--------5----------5--|
E|--------------------------------------------------3-3-3-3-3-3--------3----------3--|


--VERSE--
    D               A    B     G
e|-------------------------------------|
B|-------------------------------------|
G|--7-7-7-7-7-7-7-7--------------------|
D|--7-7-7-7-7-7-7-7--------------------|
A|--5-5-5-5-5-5-5-5-7-7-7/9-9-9\5-5-5--|
E|------------------5-5-5/7-7-7\3-3-3--|
Pm.................


--PART 2 OF CHORUS--
    E     F#    G
e|---------------------|
B|---------------------|
G|---------------------|
D|--2-2-2/4-4-4/5-5-5--|
A|--2-2-2/4-4-4/5-5-5--|
E|--0-0-0/2-2-2/3-3-3--|

JASON'S EVERCLEAR TABS - http://members.tripod.com/~panec/