Night Train to Memphis
As recorded by Everclear on "SFAAM #1: Learning how to Smile" Japanese Import
Tabbed by Jamie Lovinger (jlovinger@federatedinv.com), 
lead by Lauren Ciechanowski (trggrhppyjack@aol.com)

G
Take that night train to Memphis
               C
Take that night train to Memphis
G                                          D
Take it and I'll meet you at the station
         G
I'll be right there to greet you
         C
I'll be right there to meet you
G               D                   G
Don't turn down my invitation


Chorus:

        C
Hallelujah
        G
Hallelujah
G                                                 D
We'll be shouting hallelujah all the day
              G
Well we'll have a jubilee
             C
Down in Nashville Tennessee
             G          D                      G
We'll be shouting hallelujah all the day

Lead Guitar tabbed by Lauren Ciechanowski

This is the lead stuff that I attempted to figure out. I think the outro is 
mostly right, with a hint of wrong mixed in. All the notes are there, though. Good luck...

INTRO:
 (also appears throughout verses)
e|-5-3------------------------------| 
B|-----5-3--------------------------| 
G|---------4-2-0-2-4-2-0-------0-2-0| 
D|-----------------------2-0-2------| 
A|----------------------------------| 
E|----------------------------------|

OUTRO:
e|5-3--------------------------------------------------10| 
B|----5-3---------------------------------8-10-8-10/12---| 
G|--------4-2-0-2-4-0-2-0-------------7-9----------------| 
D|------------------------5-5-5-5/7h9--------------------| 
A|-------------------------------------------------------| 
E|-------------------------------------------------------|

Suggestion by Dirt (blind735@up2me.com)

At the end of night train to memphis when art duz it live the ending bit is G C G D G C GCG

JASON'S EVERCLEAR TABS - http://members.tripod.com/~panec/