Night Train To Memphis (bass)
As recorded by Everclear on "SFAAM #1: Learning How to Smile” Japanese Import 
Tabbed by Lauren Ciechanowski (trggrhppyjack@aol.com)

INTRO:
G|----------------(2x)|-------|
D|--------------------|-------| 
A|--------------------|-------|
E|-0-1-2-3-3-3-3-3-3-3|-0-1-2-|

VERSE (2x): 
G|------------------------------------------------| 
D|------------------------------------------------| 
A|-------------3--3--3--3--------------5--5--5--5-| 
E|-3--3--3--3--------------3--3--3--3-------------|

G|-----------------------------------------------| 
D|-----------------------------------------------| 
A|-------------3--3--3--3--------5--5------------| 
E|-3--3--3--3--------------3--3--------3--3--3--3|

CHORUS:
G|------------------------------------------------| 
D|------------------------------------------------| 
A|-3--3--3--3--------------------------5--5--5--5-| 
E|-------------3--3--3--3--3--3--3--3-------------|

G|-----------------------------------------------| 
D|-----------------------------------------------| 
A|-------------3--3--3--3--------5--5------------| 
E|-3--3--3--3--------------3--3--------3--3--3--3|

FINAL CHORUS :
G|------------------------------------------------| 
D|------------------------------------------------| 
A|-------------3--3--3--3--------5--5--3--3--3--3-| 
E|-3--3--3--3--------------3--3-------------------|

G|------------------------------------| 
D|------------------------------------| 
A|-------------5--5--5--5--3--3--3--3-| 
E|-3--3--3--3-------------------------|

OUTRO:
G|-------------------------------------------| 
D|-------------------------------------------| 
A|-------3--3--------5--5--------3--3--------| 
E|-3--3--------3--3--------3--3--------3-3-3-|

JASON'S EVERCLEAR TABS - http://members.tripod.com/~panec/